TabNabber Tabs   Musician Supported
  Tabs de Piano
Espa˝ol English
Franšais Русский
guitar

Guitar Tab, Acordes

Featured! Featured! Featured!

(5 from 5 votes)
16,721 Vistas, ´┐Żltima Revisi´┐Żn 7 years ago
by: Ed
guest
[Guest]
e|--------0---------------0-------|--------0---------------0-------|
B|----7-------7-------7-----7---7-|----7-------7-------7-----7---7-|
G|--7---7---7---7---7---7-----7---|--7---7---7---7---7---7-----7---|
D|9---------------9---------------|7---------------7---------------|
A|--------------------------------|--------------------------------|
E|--------------------------------|--------------------------------|

e|--------3---------------3-------|--------5---------------5-------|
B|----7-------7-------7-----7---7-|----7-------7-------7-----7-----|
G|--7---7---7---7---7---7-----7---|--7---7---7---7---7---7-----7---|
D|6---------------6---------------|7---------------7---------------|
A|--------------------------------|--------------------------------|
E|--------------------------------|--------------------------------|

e|--------0---------------0-------|--------0---------------0-------|
B|----5-------5-------5-----5---5-|----8-------8-------8-----8---8-|
G|--6---6---6---6---6---6-----6---|--7---7---7---7---7---7-----7---|
D|7---------------7---------------|9---------------9---------------|
A|--------------------------------|--------------------------------|
E|--------------------------------|--------------------------------|


e|--------0---------------0-------|--------0---------------0-------|
B|----7-------7-------7-----7---7-|----7-------7-------7-----7---7-|
G|--7---7---7---7---7---7-----7---|--7---7---7---7---7---7-----7---|
D|9---------------9---------------|7---------------7---------------|
A|--------------------------------|--------------------------------|
E|--------------------------------|--------------------------------|

e|--------3---------------3-------|--------5---------------5-------|
B|----7-------7-------7-----7---7-|----7-------7-------7-----7-----|
G|--7---7---7---7---7---7-----7---|--7---7---7---7---7---7---------|
D|6---------------6---------------|4---------------4---------------|
A|--------------------------------|--------------------------------|
E|--------------------------------|--------------------------------|

e|--------0---------------0-------|--------0---------------0-------|
B|----5-------5-------5-----5---5-|----8-------8-------8-----8---8-|
G|--6---6---6---6---6---6-----6---|--7---7---7---7---7---7-----7---|
D|7---------------7---------------|9---------------9---------------|
A|--------------------------------|--------------------------------|
E|--------------------------------|--------------------------------|


e|--------0---------------0-------|--------0---------------0-------|
B|----7-------7-------7-----7---7-|----7-------7-------7-----7---7-|
G|--7---7---7---7---7---7-----7---|--7---7---7---7---7---7-----7---|
D|9---------------9---------------|7---------------7---------------|
A|--------------------------------|--------------------------------|
E|--------------------------------|--------------------------------|

e|--------0---------------0-------|--------0---------------0-------|
B|----5-------5-------5-----5---5-|----8-------8-------8-----8---8-|
G|--6---6---6---6---6---6-----6---|--7---7---7---7---7---7-----7---|
D|7---------------7---------------|9---------------9---------------|
A|--------------------------------|--------------------------------|
E|--------------------------------|--------------------------------|

e|--------3---------------3-------|--------5---------------5-------|
B|----7-------7-------7-----7---7-|----7-------7-------7-----------|
G|--7---7---7---7---7---7-----7---|--7---7---7---7---7---7---------|
D|6---------------6---------------|4---------------4---------------|
A|--------------------------------|--------------------------------|
E|--------------------------------|--------------------------------|

e|--------0---------------0-------|--------0---------------0-------|
B|----5-------5-------5-----5---5-|----8-------8-------8-----8---8-|
G|--6---6---6---6---6---6-----6---|--7---7---7---7---7---7-----7---|
D|7---------------7---------------|9---------------9---------------|
A|--------------------------------|--------------------------------|
E|--------------------------------|--------------------------------|


Login to Edit
Edit
YouTube
Video
View Sheet Music
Sheet
Music
Print
Download Midi
Speed:
Download Midi Intro (login for the full song)
Get
Intro
Sustain:
alt 1     alt 2

5 Votes
5 star: 100%  (5)
4 star:  (0)
3 star:  (0)
2 star:  (0)
1 star:  (0)
0 star:  (0)
 Rate:
5 star
4 star
3 star
2 star
1 star
 

Comments (1)
 

BA


Admin
[Admin]

6 years ago
Ironic title, as this is quite brilliant, actually.

Reply

Comment on this tab
  Your Guest Name:
      [Member Login]
  Comments:
 

Don't understand the tab?
See "How to Read Guitar Tabs".
Supported tags:
<i>italics</i>
<b>bold</b>
<u>underline</u>
<tab>tab lines</tab>
  Are you a spam robot?

If not, solve the equation:




[62616 TabNabbers online]
©2024 TabNabber.com - Musician Supported Contact us Advertising Merchandise Privacy Policy Terms of Use facebook Twitter