TabNabber Tabs   Musician Supported
  Tabs de Piano
Espa˝ol English
Franšais Русский
guitar

Guitar Tab, Acordes



(0 from 0 votes)
7,247 Vistas, ´┐Żltima Revisi´┐Żn 4 years ago
by: Lil $$TAKK


New Tabber
[New Recruit]
[Intro]
e|---------------------------------|---------------------------------|
B|---------------------------------|---------------------------------|
G|---------------------------------|---------------------------------|
D|-5---3---2-----------2---2-------|-5---3---2-----------2---2-------| (x2)
A|---0---0---0-3---5-----------3---|---0---0---0-3---5---------------|
E|---------------0---0---0---0---0-|---------------0---0---0---------|

[Chorus 1]
e|---------------------------------|---------------------------------|
B|---------------------------------|---------------------------------|
G|---------------------------------|---------------------------------|
D|-5---3---2-----------2---2-------|-5---3---2-----------2---2-------| (x2)
A|---0---0---0-3---5-----------3---|---0---0---0-3---5---------------|
E|---------------0---0---0---0---0-|---------------0---0---0---------|

[Verse 1]
e|---------------------------------|---------------------------------|
B|---------------------------------|---------------------------------|
G|---------------------------------|---------------------------------|
D|-5---3---2-----------2---2-------|-5---3---2-----------2---2-------|
A|---0---0---0-3---5-----------3---|---0---0---0-3---5---------------|
E|---------------0---0---0---0---0-|---------------0---0---0---------|

e|---------------------------------|---------------------------------|
B|---------------------------------|---------------------------------|
G|---------------------------------|---------------------------------|
D|-5---3---2-----------2---2-------|-5---3---2-----------2-----------|
A|---0---0---0-3---5-----------3---|---0---0---0-3---5---------------|
E|---------------0---0---0---0---0-|---------------0---0-------------|

[Bridge] *Distortion on*
e|---------------------------------|---------------------------------|
B|---------------------------------|---------------------------------|
G|---------------------------------|---------------------------------|
D|-5---3---2-----------2---2-------|-5---3---2-----------------------| (x3)
A|---0---0---0-3---5-----------3---|---0---0---0-3---5---------------|
E|---------------0---0---0---0---0-|---------------0-----------------|

e|---------------------------------|---------------------------------|
B|---------------------------------|---------------------------------|
G|---------------------------------|---------------------------------|
D|-5---3---2-----------2---2-------|-5---3---2-----------2---2-------|
A|---0---0---0-3---5-----------3---|---0---0---0-3---5---------------|
E|---------------0---0---0---0---0-|---------------0---0---0---------|

[Chorus 2] *Distortion off*
e|---------------------------------|---------------------------------|
B|---------------------------------|---------------------------------|
G|---------------------------------|---------------------------------|
D|-5---3---2-----------2---2-------|-5---3---2-----------2---2-------| (x2)
A|---0---0---0-3---5-----------3---|---0---0---0-3---5---------------|
E|---------------0---0---0---0---0-|---------------0---0---0---------|


Login to Edit
Edit
YouTube
Video
View Sheet Music
Sheet
Music
Print
Download Midi
Speed:
Download Midi Intro (login for the full song)
Get
Intro
Sustain:
alt 1     alt 2

 Rate:
5 star
4 star
3 star
2 star
1 star
 

Comments (0)
 

No comments yet...

Comment on this tab
  Your Guest Name:
      [Member Login]
  Comments:
 

Don't understand the tab?
See "How to Read Guitar Tabs".
Supported tags:
<i>italics</i>
<b>bold</b>
<u>underline</u>
<tab>tab lines</tab>
  Are you a spam robot?

If not, solve the equation:




[15380 TabNabbers online]
©2023 TabNabber.com - Musician Supported Contact us Advertising Merchandise Privacy Policy Terms of Use facebook Twitter