TabNabber Tabs   Musician Supported
  Tabs de Piano
Espa˝ol English
Franšais Русский
guitar

Guitar Tab, Acordes



(0 from 0 votes)
308 Vistas, ´┐Żltima Revisi´┐Żn 2 months ago
by: Jose
guest
[Guest]
E|---
B|---
G|8--
D|x--
A|6--
E|---
  r--

  
E|------------------------------------------------------------------------------------------------
B|------------------------------------------------------------------------------------------------
G|11----11----11----14----11----11----11----9-----11----11----11----14----11----11----11----9-----
D|x-----x-----x-----x-----x-----x-----x-----x-----x-----x-----x-----x-----x-----x-----x-----x-----
A|9-----9-----9-----12----9-----9-----9-----7-----9-----9-----9-----12----9-----9-----9-----7-----
E|------------------------------------------------------------------------------------------------
  o-----o-----o-----o-----o-----o-----o-----o-----o-----o-----o-----o-----o-----o-----o-----o-----

  
E|------------------------------------------------------------------------------------------------
B|------------------------------------------------------------------------------------------------
G|11----11----11----14----14----14----16----14----18----18----18----16----16----14----14----11----
D|x-----x-----x-----x-----x-----x-----x-----x-----x-----x-----x-----x-----x-----x-----x-----x-----
A|9-----9-----9-----12----12----12----14----12----16----16----16----14----14----12----12----9-----
E|------------------------------------------------------------------------------------------------
  o-----o-----o-----o-----o-----o-----o-----o-----o-----o-----o-----o-----o-----o-----o-----o-----

  
E|------------------------------------------------------------------------------------------------
B|------------------------------------------------------------------------------------------------
G|7-----7-----7-----7-----------7-----9-----7-----9-----------9-----7-----9-----------9-----9-----
D|x-----x-----x-----x-----------x-----x-----x-----x-----------x-----x-----x-----------x-----x-----
A|5-----5-----5-----5-----------5-----7-----5-----7-----------7-----5-----7-----------7-----7-----
E|------------------------------------------------------------------------------------------------
  o-----o-----o-----o-----o-----o-----o-----o-----o-----o-----o-----o-----o-----o-----o-----o-----

  
E|------------------------------------------------------------------------------------------------
B|------------------------------------------------------------------------------------------------
G|------------------------5-----5-----5-----5-----------------------------8-----8-----8-----8-----
D|8-----8-----8-----8-----5-----5-----5-----5-----5-----5-----5-----5-----8-----8-----8-----8-----
A|8-----8-----8-----8-----3-----3-----3-----3-----5-----5-----5-----5-----6-----6-----6-----6-----
E|6-----6-----6-----6-----------------------------3-----3-----3-----3-----------------------------
  o-----o-----o-----o-----o-----o-----o-----o-----o-----o-----o-----o-----o-----o-----o-----o-----

  
E|------------------------------------------------------------------------------------------------
B|------------------------------------------------------------------------------------------------
G|------------------------5-----5-----5-----5-----------------------------------------------------
D|8-----8-----8-----8-----5-----5-----5-----5-----5-----5-----5-----5-----5-----5-----5-----5-----
A|8-----8-----8-----8-----3-----3-----3-----3-----5-----5-----5-----5-----5-----5-----5-----5-----
E|6-----6-----6-----6-----------------------------3-----3-----3-----3-----3-----3-----3-----3-----
  o-----o-----o-----o-----o-----o-----o-----o-----o-----o-----o-----o-----o-----o-----o-----o-----

  
E|------------------------------------------------------------------------------------------------
B|------------------------------------------------------------------------------------------------
G|7-----------------7-----------------7-----------7-----------------7-----------------7-----------
D|x-----------------x-----------------x-----------x-----------------x-----------------x-----------
A|5-----5-----5-----5-----5-----5-----5-----5-----5-----5-----5-----5-----5-----5-----5-----5-----
E|------------------------------------------------------------------------------------------------
  o-----m-----m-----o-----m-----m-----o-----m-----o-----m-----m-----o-----m-----m-----o-----m-----

  0:22
E|------------------------------------------------------------------------------------------------
B|------------------------------------------------------------------------------------------------
G|7-----7-----------7-----7-----7-----------7-----7-----7-----------7-----7-----7-----------7-----
D|x-----x-----------x-----x-----x-----------x-----x-----x-----------x-----x-----x-----------x-----
A|5-----5-----------5-----5-----5-----------5-----5-----5-----------5-----5-----5-----------5-----
E|------------------------------------------------------------------------------------------------
  o-----o-----------o-----o-----o-----------o-----o-----o-----------o-----o-----o-----------o-----

  
E|------------------------------------------------------------------------------------------------
B|------------------------------------------------------------------------------------------------
G|8-----------------8-----------------8-----------8-----------------8-----------------8-----------
D|x-----------------x-----------------x-----------x-----------------x-----------------x-----------
A|6-----6-----6-----6-----6-----6-----6-----6-----6-----6-----6-----6-----6-----6-----6-----6-----
E|------------------------------------------------------------------------------------------------
  o-----m-----m-----o-----m-----m-----o-----m-----o-----m-----m-----o-----m-----m-----o-----m-----

  
E|------------------------------------------------------------------------------------------------
B|------------------------------------------------------------------------------------------------
G|8-----------------8-----------8-----8-----8-----8-----------------8-----------8-----8-----8-----
D|x-----------------x-----------x-----x-----x-----x-----------------x-----------x-----x-----x-----
A|6-----6--6--6--6--6-----------6-----6-----6-----6-----6--6--6--6--6-----------6-----6-----6-----
E|------------------------------------------------------------------------------------------------
  o-----m--m--m--m--o-----------o-----o-----o-----o-----m--m--m--m--o-----------o-----o-----o-----

  
E|------------------------------------------------------------------------------------------------
B|------------------------------------------------------------------------------------------------
G|------------------------------------------------------------------------------------------------
D|8-----------7-----8-----------8-----7-----8-----10----8-----7-----8-----10----8-----7-----8-----
A|------------------------------------------------------------------------------------------------
E|------------------------------------------------------------------------------------------------
  o-----------o-----o-----------o-----o-----o-----o-----o-----o-----o-----o-----o-----o-----o-----

  
E|------------------------------------------------------------------------------------------------
B|------------------------------------------------------------------------------------------------
G|------------------------12----10----------------------------------------------------------------
D|------------------------------------12----13----12----------12----13----12----12----13----12----
A|10----10----10----10----------------------------------------------------------------------------
E|------------------------------------------------------------------------------------------------
  m-----m-----m-----m-----o-----o-----o-----o-----o-----------o-----o-----o-----o-----o-----o-----

  
E|------------------------------------------------------------------------------------------------
B|------------------------------------6-----8-----6-----------6-----------------------------------
G|------------------7-----5-----7-----------------------------------------7-----5-----7-----------
D|5-----7-----8-----------------------------------------------------------------------------------
A|------------------------------------------------------------------------------------------------
E|------------------------------------------------------------------------------------------------
  m-----m-----m-----m-----m-----m-----o-----o-----o-----------o-----------o-----o-----o-----------

  
E|------------------------------------------------------------------------------------------------
B|------------------------------------------------------------------------------------------------
G|------------------------------------------------------------------------------------------------
D|8-----------7-----8-----------8-----7-----8-----10----8-----7-----8-----10----8-----7-----8-----
A|------------------------------------------------------------------------------------------------
E|------------------------------------------------------------------------------------------------
  o-----------o-----o-----------o-----o-----o-----o-----o-----o-----o-----o-----o-----o-----o-----

  
E|------------------------------------------------------------------------------------------------
B|------------------------------------------------------------------------------------------------
G|12----12-10----10-12----15----15-12----12-10----12----12-10----10-12----15----15-12----12-10----
D|x-----x--x-----x--x-----x-----x--x-----x--x-----x-----x--x-----x--x-----x-----x--x-----x--x-----
A|10----10-8-----8--10----13----13-10----10-8-----10----10-8-----8--10----13----13-10----10-8-----
E|------------------------------------------------------------------------------------------------
  o--o--o--o--o--o--o--o--o--o--o--o--o--o--o--o--o--o--o--o--o--o--o--o--o--o--o--o--o--o--o--o--

  
E|------------------------------------------------------------------------------------------------
B|------------------------------------------------------------------------------------------------
G|12----12----------12----10----------15----------12----12----------12----10----------15----------
D|x-----x-----------x-----x-----------x-----------x-----x-----------x-----x-----------x-----------
A|10----10----------10----8-----------13----------10----10----------10----8-----------13----------
E|------------------------------------------------------------------------------------------------
  o-----o-----o-----o-----o-----o-----o-----o-----o-----o-----o-----o-----o-----o-----o-----o-----

  
E|------------------------------------------------------------------------------------------------
B|------------------------------------------------------------------------------------------------
G|12----12-10----10-12----15----15-12----12-10----12----12-10----10-12----15----15-12----12-10----
D|x-----x--x-----x--x-----x-----x--x-----x--x-----x-----x--x-----x--x-----x-----x--x-----x--x-----
A|10----10-8-----8--10----13----13-10----10-8-----10----10-8-----8--10----13----13-10----10-8-----
E|------------------------------------------------------------------------------------------------
  o--o--o--o--o--o--o--o--o--o--o--o--o--o--o--o--o--o--o--o--o--o--o--o--o--o--o--o--o--o--o--o--

  
E|------------------------------------------------------------------------------------------------
B|------------------------------------------------------------------------------------------------
G|------------------------------------------------------------------------------------------------
D|8-----------7-----8-----------8-----7-----8-----10----8-----7-----8-----10----8-----7-----8-----
A|------------------------------------------------------------------------------------------------
E|------------------------------------------------------------------------------------------------
  o-----------o-----o-----------o-----o-----o-----o-----o-----o-----o-----o-----o-----o-----o-----

  
E|------------------------------------------------------------------------------------------------
B|------------------------------------------------------------------------------------------------
G|------------------------------------------------------------------------------------------------
D|7-----------------------------------5-----4-----2-----------------4-----------------5-----------
A|------------------------------------------------------------------------------------------------
E|------------------------------------------------------------------------------------------------
  o-----------------------------------o-----o-----o-----------------o-----------------o-----------

  
E|------------------------------------------------------------------------------------------------
B|------------------------------------------------------------------------------------------------
G|7-----7--7-----7--7--7--14----14-14----14-14-14-12----12-11----9--9-----12----12-11----9--9-----
D|x-----x--x-----x--x--x--x-----x--x-----x--x--x--x-----x--x-----x--x-----x-----x--x-----x--x-----
A|5-----5--5-----5--5--5--12----12-12----12-12-12-10----10-9-----7--7-----10----10-9-----7--7-----
E|------------------------------------------------------------------------------------------------
  o--o--o--o--o--o--o--o--o--o--o--o--o--o--o--o--o--o--o--o--o--o--o--o--o--o--o--o--o--o--o--o--

  
E|------------------------------------------------------------------------------------------------
B|------------------------------------------------------------------------------------------------
G|7-----------------------------------7-----9-----11----------9-----------7-----------14----------
D|x-----------------------------------x-----x-----x-----------x-----------x-----------x-----------
A|5-----------------------------------5-----7-----9-----------7-----------5-----------12----------
E|------------------------------------------------------------------------------------------------
  o-----------------------------------o-----o-----o-----------o-----------o-----------o-----------

  
E|------------------------------------------------------------------------------------------------
B|------------------------------------------------------------------------------------------------
G|------------------------------------------------------------------------------------------------
D|7-----7--7--7--7--7-----5-----5--5--5--5--5-----4-----4--4--4--4--4-----2-----2--2--2--2--2--2--
A|------------------------------------------------------------------------------------------------
E|------------------------------------------------------------------------------------------------
  o-----m--m--m--m--o-----o-----m--m--m--m--o-----o-----m--m--m--m--m-----o-----m--m--m--m--m--m--

  
E|------------------------------------------------------------------------------------------------
B|------------------------------------------------------------------------------------------------
G|7-----------------------------------7-----9-----11----------9-----------7-----------14----------
D|x-----------------------------------x-----x-----x-----------x-----------x-----------x-----------
A|5-----------------------------------5-----7-----9-----------7-----------5-----------12----------
E|------------------------------------------------------------------------------------------------
  o-----------------------------------o-----o-----o-----------o-----------o-----------o-----------

  
E|------------------------------------------------------------------------------------------------
B|------------------------------------------------------------------------------------------------
G|7-----7-----------6-----7-----7-----------6-----7-----7-----------6-----7-----9-----7-----6-----
D|0-----0-----------0-----0-----0-----------0-----0-----0-----------0-----0-----0-----0-----0-----
A|------------------------------------------------------------------------------------------------
E|------------------------------------------------------------------------------------------------
  o-----o-----------o-----o-----o-----------o-----o-----o-----------o-----o-----o-----o-----o-----

  
E|------------------------------------------------------------------------------------------------
B|------------------------------------------------------------------------------------------------
G|------------------------------------------------------------------------------------------------
D|4-----4-----4-----4-----4-----4-----4-----7-----7-----7-----7-----7-----7-----7-----7-----7-----
A|------------------------------------------------------------------------------------------------
E|------------------------------------------------------------------------------------------------
  m-----m-----m-----m-----m-----m-----m-----m-----m-----m-----m-----m-----m-----m-----m-----m-----

  
E|------------------------------------------------------------------------------------------------
B|------------------------------------------------------------------------------------------------
G|------------------------4-----------2-----------4-----------------------2-----------2---4---2---
D|------------------------------------------------------------------------------------------------
A|2-----------------------------------------------------------------------------------------------
E|------------------------------------------------------------------------------------------------
  o-----------------------o-----------o-----------o-----------------------o-----------o---o---o---

  
E|------------------------------------------------------------------------------------------------
B|------------------------------------------------------------------------------------------------
G|------------------------------------------------------------------------------------------------
D|4-----------------------------------2-----------4-----------------------------------------------
A|------------------------------------------------------------------------------------------------
E|------------------------------------------------------------------------------------------------
  o-----------------------------------o-----------o-----------------------------------------------

  
E|------------------------------------------------------------------------------------------------
B|------------------------------------------------------------------------------------------------
G|------------------------------------------------------------------------------------------------
D|------------------------------------------------------------------------------------------------
A|------------------------------------------------------------------------------------------------
E|------------------------------------------------------------------------------------------------
  ------------------------------------------------------------------------------------------------

  
E|------------------------------------------------------------------------------------------------
B|------------------------------------------------------------------------------------------------
G|------------------------------------------------------------------------------------------------
D|------------------------------------------------------------------------------------------------
A|------------------------------------------------------------------------------------------------
E|------------------------------------------------------------------------------------------------
  ------------------------------------------------------------------------------------------------

  
E|------------------------------------------------------------------------------------------------
B|------------------------------------------------------------------------------------------------
G|------------------------------------------------------------------------------------------------
D|------------------------------------------------------------------------------------------------
A|------------------------------------------------------------------------------------------------
E|------------------------------------------------------------------------------------------------
  ------------------------------------------------------------------------------------------------

  
E|------------------------------------------------------------------------------------------------
B|------------------------------------------------------------------------------------------------
G|------------------------7-----------------5-----7-----------10----------7-----------------5-----
D|------------------------------------------------------------------------------------------------
A|------------------------------------------------------------------------------------------------
E|------------------------------------------------------------------------------------------------
  ------------------------o-----------------o-----o-----------o-----------o-----------------o-----

  
E|------------------------------------------------------------------------------------------------
B|------------------------------------------------------------------------------------------------
G|7-----------12----10----------------------------------------------------------------------------
D|------------------------8-----8-----8-----8-----10----10----10----8-----13----13----12----12----
A|------------------------------------------------------------------------------------------------
E|------------------------------------------------------------------------------------------------
  o-----------o-----o-----m-----m-----m-----m-----m-----m-----m-----m-----m-----m-----m-----m-----

  
E|------------------------------------------------------------------------------------------------
B|------------------------------------------------------8-----------------------------------------
G|------------------------------------7-----8-----10----------10----8-----7-----------7---8---7---
D|10----10----8-----8-----8-----10----------------------------------------------------------------
A|------------------------------------------------------------------------------------------------
E|------------------------------------------------------------------------------------------------
  m-----m-----m-----m-----o-----o-----o-----o-----o-----o-----o-----o-----o-----------o-----------

  
E|------------------------------------------------------------------------------------------------
B|------------------------------------------------------------------------------------------------
G|------------------7-----15----15----------15----------15----14----14----13----13----------13----
D|10----8-----10----------x-----x-----------x-----------x-----x-----x-----x-----x-----------x-----
A|------------------------13----13----------13----------13----12----12----11----11----------11----
E|------------------------------------------------------------------------------------------------
  o-----o-----o-----o-----o-----o-----o-----o-----o-----o-----o-----o-----o-----o-----o-----o-----

  
E|------------------------------------------------------------------------------------------------
B|------------------------------------------------------------------------------------------------
G|17----15----------14----10----10----------12----15----12----10----------12----12----------10----
D|x-----x-----------x-----x-----x-----------x-----x-----x-----x-----------x-----x-----------x-----
A|15----13----------12----8-----8-----------10----13----10----8-----------10----10----------8-----
E|------------------------------------------------------------------------------------------------
  o-----o-----o-----o-----o-----o-----o-----o-----o-----o-----o-----o-----o-----o-----o-----o-----

  
E|------------------------------------------------------------------------------------------------
B|------------------------------------------------------------------------------------------------
G|12----12----------12----------------------------------------------------------------------------
D|x-----x-----------x-----------------------------------------------------------------------------
A|10----10----------10----------------------------------------------------------------------------
E|------------------------------------------------------------------------------------------------
  o-----o-----o-----o-----------------------------------------------------------------------------

  
E|------------------------------------------------------------------------------------------------
B|------------------------------------------------------------------------------------------------
G|------------------------------------------------------------------------------------------------
D|------------------------------------------------------------------------------------------------
A|------------------------12----12----12----9-----9-----9-----7-----7-----5-----5-----5-----7-----
E|------------------------------------------------------------------------------------------------
  ------------------------m-----m-----m-----m-----m-----m-----m-----m-----m-----m-----m-----m-----

  
E|------------------------------------------------------------------------------------------------
B|------------------------------------------------------------------------------------------------
G|------------------------11----9-----------------------------------------------------------------
D|------------------------------------------12----------12----11--12--11--7-----------7-----9-----
A|7-----7-----9-----9-----------------------------------------------------------------------------
E|------------------------------------------------------------------------------------------------
  m-----m-----m-----m-----o-----o-----------o-----------o-----o---o---o---o-----------o-----o-----

  
E|------------------------------------------------------------------------------------------------
B|------------------------------------------------------------------------------------------------
G|------------------------------------------------------------------------------------------------
D|------9-----9-----------9-----7-----9-----12----------11----9-----7-----------7-----9-----7-----
A|------------------------------------------------------------------------------------------------
E|------------------------------------------------------------------------------------------------
  ------o-----o-----------o-----o-----o-----o-----------o-----o-----o-----------o-----o-----o-----

  
E|------------------------------------------------------------------------------------------------
B|------------------------------------------------------------------------------------------------
G|------------------------11----------------------------------------------9-----------------7-----
D|12----------11----------------------------------------------------------------------------------
A|------------------------------------------------------------------------------------------------
E|------------------------------------------------------------------------------------------------
  o-----------o-----------o-----------------------------------------------o-----------------o-----

  
E|------------------------------------------------------------------------------------------------
B|------------------------------------------------------------------------------------------------
G|------------14----------7-----7-----------6-----7-----7-----------6-----7-----6-----------7-----
D|------------------------------------------------------------------------------------------------
A|------------------------------------------------------------------------------------------------
E|------------------------------------------------------------------------------------------------
  ------------o-----------o-----o-----------o-----o-----o-----------o-----o-----o-----------o-----

  
E|------------------------------------------------------------------------------------------------
B|------------------------------------------------------------------------------------------------
G|------6-----9-----------------------11----------11----------9-----------9-----------9-----------
D|------------------------------------------------------------------12----------------------------
A|------------------------------------------------------------------------------------------------
E|------------------------------------------------------------------------------------------------
  ------o-----o-----------------------o-----------o-----------o-----o-----o-----------o-----------

  
E|------------------------------------------------------------------------------------------------
B|------------------------------------------------------------------------------------------------
G|------------------------11----11----11----9-----9-----9-----7-----7-----6-----6-----6-----7-----
D|12----11----9-----------9-----9-----9-----9-----9-----9-----7-----7-----7-----7-----7-----7-----
A|------------------------------------------------------------------------------------------------
E|------------------------------------------------------------------------------------------------
  o-----o-----o-----------o-----o-----o-----o-----o-----o-----o-----o-----o-----o-----o-----o-----

  
E|------------------------------------------------------------------------------------------------
B|------------------------------------------------------------------------------------------------
G|7-----7-----9-----9-----------------------------------------------------------------------------
D|7-----7-----7-----7-----9-----------------------------------------------------------------------
A|------------------------9-----------------------------------------------------------------------
E|------------------------7-----------------------------------------------------------------------
  o-----o-----o-----o-----o-----------------------------------------------------------------------

  
E|------------------------------------------------------------------------------------------------
B|------------------------------------------------------------------------------------------------
G|------------------------------------------------------------------------------------------------
D|------------------------------------------------------------------------------------------------
A|------------------------------------------------------------------------------------------------
E|------------------------------------------------------------------------------------------------
  ------------------------------------------------------------------------------------------------

  
E|------------------------------------------------------------------------------------------------
B|------------------------------------------------------------------------------------------------
G|------------------------------------------------------------------------------------------------
D|------------------------2-----------------------------------------------------------------------
A|------------------------2-----------------------------------------------------------------------
E|------------------------0-----------------------------------------------------------------------
  ------------------------o-----------------------------------------------------------------------

  
E|------------------------------------------------------------------------------------------------
B|------------------------------------------------------------------------------------------------
G|------------------------------------------------------------------------------------------------
D|------------------------------------------------------------------------------------------------
A|------------------------------------------------------------------------------------------------
E|------------------------------------------------------------------------------------------------
  ------------------------------------------------------------------------------------------------

  
E|------------------------------------------------
B|------------------------------------------------
G|------------------------------------------------
D|------------------------------------------------
A|------------------------------------------------
E|------------------------------------------------
  ------------------------------------------------








Login to Edit
Edit
YouTube
Video
View Sheet Music
Sheet
Music
Print
Download Midi
Speed:
Download Midi Intro (login for the full song)
Get
Intro
Sustain:
alt 1     alt 2

 Rate:
5 star
4 star
3 star
2 star
1 star
 

Comments (0)
 

No comments yet...

Comment on this tab   -   Unhelpful comments are exterminated.
  Your Guest Name:
      [Member Login]
  Comments:
 

Don't understand the tab?
See "How to Read Guitar Tabs".
Supported tags:
<i>italics</i>
<b>bold</b>
<u>underline</u>
<tab>tab lines</tab>
  Are you a spam robot?

If not, solve the equation:




[281 TabNabbers online]


©2022 TabNabber.com - Musician Supported Contact us Advertising Merchandise Privacy Policy Terms of Use facebook Twitter