TabNabber Tabs   Musician Supported
  Tabs de Piano
Espa˝ol English
Franšais Русский
guitar

Guitar Tab, Acordes

Featured! Featured! Featured!

(0 from 0 votes)
18,437 Vistas, ´┐Żltima Revisi´┐Żn 14 years ago
by: alec
guest
[Guest]
e|----------3-----------------3--------
b|----------0-----------------0--------
g|--3---3---3---------3---3---3--------
d|--2---2---2---------2---2---2--------
a|--2---2---2---------2---2---2--------
e|0-------------0-3-0--------------2-3-


e|----------2-----------------2--------
b|----------2-----------------2--------
g|--4---4---4---------4---4---4--------
d|--2---2---2---------2---2---2--------
a|--4---4---4---------4---4---4--------
e|2-------------2-3-2--------------0-3-


e|----------3-----------------3--
b|----------0-----------------0--
g|--3---3---3---------3---3---3--
d|--2---2---2---------2---2---2--
a|--2---2---2---------2---2---2--
e|0-------------0-3-0------------


Login to Edit
Edit
YouTube
Video
View Sheet Music
Sheet
Music
Print
Download Midi
Speed:
Download Midi Intro (login for the full song)
Get
Intro
Sustain:
alt 1     alt 2

 Rate:
5 star
4 star
3 star
2 star
1 star
 

Comments (0)
 

No comments yet...

Comment on this tab
  Your Guest Name:
      [Member Login]
  Comments:
 

Don't understand the tab?
See "How to Read Guitar Tabs".
Supported tags:
<i>italics</i>
<b>bold</b>
<u>underline</u>
<tab>tab lines</tab>
  Are you a spam robot?

If not, solve the equation:




[6242 TabNabbers online]
©2023 TabNabber.com - Musician Supported Contact us Advertising Merchandise Privacy Policy Terms of Use facebook Twitter