TabNabber Tabs   Musician Supported
  Tabs de Piano
Espa˝ol English
Franšais Русский
Artista: # A B C D E F G H I J K L M N O P Q R S T U V W X Y Z
guitar

Guitar Tab, Acordes



(0 from 0 votes)
11,617 Vistas, ´┐Żltima Revisi´┐Żn 11 years ago
by: Tunder


Tab Guru
[Tab Guru]
Led Zeppelin - Stairway to Heaven ( Guitar edition )

I know I copied it, but the maker did it wrong. I made it +-100% correct.
This tab is +- 3 bpm too slow :(

E|5-----5-7-----7-|8-----8-2-----2-|0-----0---5-3-1-|3-0-0-----------|
B|----5-------5---|----5-------3---|----1-----------|0-1-1-----------|
G|--5-------5-----|--5-------2-----|--2-------------|0-2-2-----------|
D|7-------6-------|5-------0-------|3---------------|0-2-2-----------|
A|----------------|----------------|----------------|2-0-0-----0/8-7-|
E|----------------|----------------|----------------|3---------------|
 
E|--------7-----7-|8-----8-2-----2-|0---------0-----|----------------|
B|------5---5-----|--5-------3-----|--1---1-----1---|0-1-1-----------|
G|----5-------5---|----5-------2---|----2---------2-|0-2-2-----------|
D|--7-----6-------|5-------4-------|3---------------|----------------|
A|0---------------|----------------|----------------|2-0-0-------0-2-|
E|----------------|----------------|----------------|----------------|
 
E|------0-2-----2-|0-----0----------|--------3-----3-|
B|----------3-----|--1-----0h1------|1-----1---0-----|
G|----0-------2---|----2-------2----|--0---------0---|
D|--2-----0-------|3----------------|----2-----------|
A|3---------------|--------0----0-2-|3---------------|
E|----------------|-----------------|--------3-------|
                                                               Intro end.
E|--------2-----2-|0-----0----------|--------------2-|0-0-0-----------|
B|------1---3-----|--1-----0-1------|------1-----3---|1-1-1-----------|
G|----0-------2---|----2-------2----|----0-----2-----|2-2-2-----------|
D|--2-----0-------|3----------------|--2-----0-------|3-3-3-----------|
A|3---------------|--------0----0-2-|3---------------|----------------|
E|----------------|-----------------|----------------|----------------|
                                                               
 
E|------5-7-----7-|8-----8-2-----2-|0---------0-----|----------------|
B|----5-----5-----|--5-------3-----|--1---1-----1---|0-1-1-----------|
G|--5---------5---|----5-------2---|----2---------2-|0-2-2-----------|
D|7-------6-------|5-------4-------|3---------------|----------------|
A|----------------|----------------|----------------|2-0-0-----------|
E|----------------|----------------|----------------|----------------|
 
 
E|------5-7-----7-|8-----8-2-----2-|0---------0-----|----------------|
B|----5-----5-----|--5-------3-----|--1---1-----1---|0-1-1-----------|
G|--5---------5---|----5-------2---|----2---------2-|0-2-2-----------|
D|7-------6-------|5-------4-------|3---------------|----------------|
A|----------------|----------------|----------------|2-0-0-------0-2-|
E|----------------|----------------|----------------|----------------|
 
 
E|--------2-----2-|0-----0---------------|--------3-----3-|3^2-2-2-------|
B|------1---3-----|--1----1--0-1---------|1---1-1---0-----|3---3-3-------|
G|----0-------2---|----2---------2-------|--0-0-------0---|2-----2-------|
D|--2-----0-------|3---------------------|----2-----------|0-----0-------|
A|3---------------|----------0------0-2--|3---------------|----------0-2-|
E|----------------|----------------------|--------3-------|--------------|

 
E|------0-2-----2-|0-----------------|--------2-----2-|0-0-0-----------|
B|----------3-----|--1--1--0 1-------|1-----1---3-----|1-1-1-----------|
G|----0-------2---|----2-------2-----|--0---------2---|2-2-2-----------|
D|--2-----0-------|3-----------------|----2---0-------|3-3-3-----------|
A|3---------------|--------------0-2-|3---------------|----------------|
E|----------------|------------------|----------------|----------------|


E|------5-7-----7-|8-----8-2-----2-|0---0-----0-----|----------------|
B|----5-----5-----|--5-------3-----|--1---1-----1---|0-1-1-----------|
G|--5---------5---|----5-------2---|--------------2-|0-2-2-----------|
D|7-------6-------|5-------4-------|3---------------|----------------|
A|----------------|----------------|----------------|2-0-0---0--/8-7-|
E|----------------|----------------|----------------|----------------|
   
E|-------5-7---7---|---8-------2------|---0-------0----|----------------|
B|----------5-5-5--|--5-5-----3-3-----|--1--1----1-1---|0-1-1-------3---|
G|-----5-----5---5-|-5---5---2---2--2-|-2----2--2---2--|0-2-2-------0---|
D|---7-----6-------|5-----5-4-----4---|3-------3-----3-|------------0---|
A|0-0--------------|------------------|----------------|2-0-0-------2---|
E|-----------------|------------------|----------------|----------------|
 
E|3---3-3-3--3--0-0-|2-------2-------|3--3-3-3--3--0-0---7-|-5---3---5----|
B|1---1-1-1--1--1-3-|3--3--3---3-0-0-|1--1-1-1--1--1-1---8-|-7---5---7----|
G|2---2-2-2--2--2-2-|2-----------0-0-|2--2-2-2--2--2-2---9-|-7---5---7----|
D|2---2-2-2--2--2---|--0-------------|2--2-2-2--2--2-2---0-|------------0-|
A|------------------|----------------|---------------------|------------0-|
E|------------------|----------------|---------------------|--------------|
                      
E|3---3-3-3--3--0-0-|2-------2-------|3--3-3-3--3--0-0---7-|-5---3---5----|
B|1---1-1-1--1--1-3-|3--3--3---3-0-0-|1--1-1-1--1--1-1---8-|-7---5---7----|
G|2---2-2-2--2--2-2-|2-----------0-0-|2--2-2-2--2--2-2---9-|-7---5---7----|
D|2---2-2-2--2--2---|--0-------------|2--2-2-2--2--2-2---0-|------------0-|
A|------------------|----------------|---------------------|------------0-|
E|------------------|----------------|---------------------|--------------|
   
 
E|-----------------|-----------------------|----------------0--|-0--------|
B|--------1------3-|0h1----------1---------|------1---------0--|-1--------|
G|------0------0---|----2-------2----------|----0--------0--2--|-2--------|
D|----2------0-----|--------2--------------|--2--------0----3--|-2--------|
A|0h3------2-------|------0----------0--2--|3--------2------3--|-0---0-2--|
E|-----------------|-----------------------|----------------1--|----------|


E|---------------|-------------------|---------------0-|-0------|--------|
B|------1------3-|0h1---------1------|------1--------1-|-1------|---1---3|
G|----0------0---|----2-----2--------|----0-------0--2-|-2------|--0---0-|
D|--2------0-----|--------2----------|--2-------0----3-|-2------|-2---0--|
A|3------2-------|------0------0--2--|3-------2------3-|-0--0-2-|3---2---|
E|---------------|-------------------|---------------1-|--------|--------|
 
E|3--3-3-3--3p-0-0---7-|-5---3---5----|3--3-3-3--3h-0-0-|2-----2-2-2-2-0-0-|
B|1--1-1-1--1--1-1---8-|-7---5---7----|1--1-1-1--1--1-3-|3-----3-3-3-3-0-0-|
G|2--2-2-2--2--2-2---9-|-7---5---7----|2--2-2-2--2--2-0-|2-----2-2-2-2-0-0-|
D|2--2-2-2--2--2-2---0-|---------0----|2--2-2-2--2--2---|---0--0-----------|
A|---------------------|------------0-|-----------------|------------------|
E|---------------------|--------------|-----------------|------------------|
                                                        
E|3--3-3-3--3--0-0---7-|-5---3---5----|
B|1--1-1-1--1--1-1---8-|-7---5---7----|
G|2--2-2-2--2--2-2---9-|-7---5---7----|
D|2--2-2-2--2--2-2---0-|---------0----|
A|---------------------|------------0-|
E|---------------------|--------------|
  
 
E|-----------------|-----------------------|----------------0--|-0--------|
B|--------1------3-|0h1----------1---------|------1---------1--|-1--------|
G|------0------0---|----2-------2----------|----0--------0--2--|-2--------|
D|----2------0-----|--------2--------------|--2--------0----3--|-2--------|
A|0h3------2-------|------0----------0--2--|3--------2------3--|-0---0-2--|
E|-----------------|-----------------------|----------------1--|----------|

 
E|---------------|3--3-3-3--3--0-0-|2-----2-2-2-2-----|3--3-3-3--3--0-7-|
B|------1------0-|1--1-1-1--1--1-3-|3-----3-3-3-3-0-0-|1--1-1-1--1--1-8-|
G|----0------0---|2--2-2-2--2--0-0-|2--2--2-2-2-2-0-0-|0--0-2-0--0--0-9-|
D|--2------0-----|2--2-2-2--2------|---0--0-----------|2--2-2-2--2------|
A|3------2-------|-----------------|------------------|-----------------|
E|---------------|-----------------|------------------|-----------------|
                                         
E|5--3--5--|3--3-3-3--3--0-0-|2-----2-2-2-2-0-0-|3--3-3-3--3--0-7-|5--3--5-|
B|7--5--7--|1--1-1-1--1--1-3-|3--3--3-3-3-3-0-0-|1--1-1-1--1--1-8-|7--5--7-|
G|7--5--7--|2--2-2-2--2--0-0-|2--2--2-2-2-2-0-0-|0--0-2-0--0--0-9-|7--5--7-|
D|---------|2--2-2-2--2------|------------------|2--2-2-2--2------|--------|
A|-------0-|-----------------|------------------|-----------------|-------0|
E|---------|-----------------|------------------|-----------------|--------|
                            
 
E|-----------------|-----------------------|----------------0--|-0--------|
B|--------1------3-|0h1----------1---------|------1---------1--|-1--------|
G|------0------0---|----2-------2----------|----0--------0--2--|-2--------|
D|----2------0-----|--------2--------------|--2--------0----3--|-2--------|
A|0h3------2-------|------0----------0--2--|3--------2------3--|-0---0-2--|
E|-----------------|-----------------------|----------------1--|----------|

 
                                                         
E|----3--------3---|-2---------0-2--|3----0-2--3--0-2--|--3-3-2---------|
B|--5--------3---4-|-3-------3-3-3--|3--3-3-3--3--3-3--|--3-3-3-3-------|
G|5-----5--4-------|-2-------2-2-2--|2--2-2-2--2--2-2--|--2-2-2-0-------|
D|-----------------|----------------|0--0-0-0--0--0-0--|--0-0-0-2-------|
A|-----------------|----------------|------------------|--------3-------|
E|-----------------|----------------|------------------|----------------|
 
E|--2-2-2---|--2--2-2--0-0-0-2-|3-0-2--0-2-|3-3-3-3-|--2--2-2-0-0-|0-2-2-0|
B|3-3-3-3-1-|1-3--3-3--3-3-3-3-|3-3-3--3-3-|3-3-3-3-|3-3--3-3-3-3-|3-3-3-3|
G|0-0-0-0-0-|0-0--0-0------2-2-|2-2-2--2-2-|2-2-2-0-|0-0--0-0-0-0-|0-0-0-0|
D|--------2-|----------0-0-0-0-|0-0-0--0-0-|0-0-0-2-|2------------|-------|
A|--------3-|------------------|-----------|------3-|-------------|-------|
E|----------|------------------|-----------|--------|-------------|-------|
 

E|---------5---------------|-----------------8--8-|
B|-----------8-5-----------|------------8b10------|
G|--7b9----------7-5---7p5-|----------------------|
D|-------------------7-----|7p5-------------------|
A|-------------------------|---8------------------|
E|-------------------------|----------------------|
 
E|-8b10---8--5 ------8--10-|8-----------------------5-------|
B|--------------8b10-------|--10-8----8h10------------8-5---|
G|-------------------------|-------10-----------7b9-------7-|
D|-------------------------|--------------------------------|
A|-------------------------|--------------------------------|
E|-------------------------|--------------------------------|
 
E|---------------------------|---5------------------------|
B|---------------------------|-----8-5--------------------|
G|5---7p5------------5---5-5-|---------7-5--7p5-----------|
D|--7-----7-5---5-7----7-----|5------------7----7p5-7p5---|
A|------------7--------------|--------------------------8-|
E|---------------------------|----------------------------|
 

E|--------------------------------------------|
B|-----------------------------------------13-|
G|--------10-------------------12----12-14----|
D|-----10----12-10----10-12/14----14----------|
A|8/12-------------12-------------------------|
E|--------------------------------------------|

E|-----------------------15b17-15-12----------------|
B|-15b17-15-13--15-13-13-------------15b17-15-13----|
G|-----------------------------------------------14-|
D|--------------------------------------------------|
A|--------------------------------------------------|
E|--------------------------------------------------|

E|---------------------------------------------------------------------------|
B|13-15b17b15p13----13-15b17b15p13----13---15b17b15p13----13--15b17b15p13----|
G|---------------14----------------14------------------14-----------------14-|
D|---------------------------------------------------------------------------|
A|---------------------------------------------------------------------------|
E|---------------------------------------------------------------------------|

E|---------------------------------------------------------------------------|
B|13-15b17b15p13----13--15b17b15p13----13--15b17b15p13----13--15b17b15p13----|
G|---------------14-----------------14-----------------14-----------------14-|
D|---------------------------------------------------------------------------|
A|---------------------------------------------------------------------------|
E|---------------------------------------------------------------------------|
 
 
E|-----------------------------------------15b17--|
B|13--15b17b15p13----13---15b17b15p13----13-------|
G|----------------14------------------14----------|
D|------------------------------------------------|
A|------------------------------------------------|
E|------------------------------------------------|

E|b17b15-12---12--------------------------------15--|
B|----------15---15--13----13-15-13---13--15b17-----|
G|----------------------14----------14--------------|
D|--------------------------------------------------|
A|--------------------------------------------------|
E|--------------------------------------------------|
 
                 
E|----------------------------|----------17----------------------------------|
B|15b17b15p13----13/12--13/10-|-------20----20-20----------------------------|
G|------------14--------------|-19b21-21----------19b21b19p17---19--17----19-|
D|----------------------------|-------------------------------19-------19----|
A|----------------------------|----------------------------------------------|
E|----------------------------|----------------------------------------------|

E|-------------------|-------------------------------|-------------|
B|-------------------|-------------------------------|-------------|
G|19b21--13/12 13/10-|-14b17--14b17-14--12--14--12-12b14-----------|
D|-------------------|-------------------------------|-------------|
A|-------------------|-------------------------------|-------------|
E|-------------------|-------------------------------|-------------|

E|----------------------------------|---------8/7--8/5--|
B|----------------------------------|-------------------|
G|10b14----10b12b10-9-7----7--------|7-9-7--------------|
D|----------------------10----10----|------10-7---------|
A|----------------------------------|-------------------|
E|----------------------------------|-------------------|
 

E|---20-p17------20-p17------20-p17------20-p17------20-p17-----20b22-|
B|17--------17----------17----------17----------17----------17--------|
G|--------------------------------------------------------------------|
D|--------------------------------------------------------------------|
A|--------------------------------------------------------------------|
E|--------------------------------------------------------------------|
 

E|5------------3----------------|1--3-|5------------3-------------|-1--3-|
B|5------------3----------------|1--3-|5------------3-------------|-1--3-|
G|5------------4----------------|2--4-|5------------4-------------|-2--4-|
D|7------------5----------------|3--5-|7------------5-------------|-3--5-|
A|7------------5----------------|3--5-|7------------5-------------|-3--5-|
E|5------------3----------------|1--4-|5------------3-------------|-1--4-|
 

E|5------------3-------------|1--3--|5------------3----------|
B|5------------3-------------|1--3--|5------------3----------|
G|5------------4-------------|2--4--|5------------4----------|
D|7------------5-------------|3--5--|7------------5----------|
A|7------------5-------------|3--5--|7------------5----------|
E|5------------3-------------|1--4--|5------------3----------|

E|-1-----------------------3--|------------------------------|
B|-1-----------------------3--|------------------------------|
G|-2-----------------------4--|------------------------------|
D|-3-----------------------5--|------------------------------|
A|-3----------3--5h7--5--3-5--|------------------------------|
E|-1----1-3h5--------------3--|5---5--------3--3-------------|

E|--------------------5------------3-------------|1--3--|5------3----------|
B|--------------------5------------3-------------|1--3--|5------3----------|
G|--------------------5------------4-------------|2--4--|5------4----------|
D|--------------------7------------5-------------|3--5--|7------5----------|
A|------3--5h7--5--3--7------------5-------------|3--5--|7------5----------|
E|1-3h5---------------5------------3-------------|1--4--|5-5----3--3-------|
 

E|-1------------------------|---------0-|--0-0-0-0-----|
B|-1------------------------|---------1-|--1-1-1-1-----|
G|-2------------------------|---------2-|--2-2-2-2-----|
D|-3------------------------|---------3-|--3-3-3-3-----|
A|-3----------3--5h7--5--3--|-----------|--------------|
E|-1----1-3h5---------------|5-5--3-3-1-|1----------5-5|
 

E|----------0-|0-0-0-0------|-------8-10-----|------------------------|
B|----------1-|1-1-1-0------|8/10--------10--|-8h10p10----------3-3---|
G|----------2-|2-2-2-0------|----------------|----------------5b7-2---|
D|----------3-|3-3-3-0------|----------------|--------------------3---|
A|------------|-------------|----------------|------------------------|
E|5-5--3-3--1-|-------------|----------------|------------------------|
 
E|---------------------0--|------------------|------------------------|
B|---5-------8------10-3--|----13-------12---|----13------12------13>>|
G|-7b9----10b12--12b14-0--|-15b17----14b16---|-15b17---14b16---15b17>>|
D|---------------------0--|------------------|------------------------|
A|------------------------|------------------|------------------------|
E|------------------------|------------------|------------------------|

E|----------------------------------------|
B|13------12-------13------15-------------|
G|17---14b16----15b17---17b19-------------|
D|----------------------------------------|
A|----------------------------------------|
E|----------------------------------------|
 
 
slow

E|---------------------|0---------------------------------------------|
B|---13------12-----15-|1----13---------------------------------------|
G|15b17---14b16--17b19-|2-15b17---------------------------------------|
D|---------------------|3---------------------------------------------|
A|---------------------|----------------------------------------------|
E|---------------------|----------------------------------------------|


Login to Edit
Edit
YouTube
Video
View Sheet Music
Sheet
Music
Print
Speed:
Play Intro (login for the full song)
Play
Intro
Sustain:
Download midi (intro) ...

 Rate:
5 star
4 star
3 star
2 star
1 star
 

Comments (0)
 

No comments yet...

Comment on this tab   -   Unhelpful comments are exterminated.
  Your Guest Name:
      [Member Login]
  Comments:
 

Don't understand the tab?
See "How to Read Guitar Tabs".
Supported tags:
<i>italics</i>
<b>bold</b>
<u>underline</u>
<tab>tab lines</tab>
  Are you a spam robot?

If not, solve the equation:




[397 TabNabbers online]
©2020 TabNabber.com - Musician Supported Contact us Advertising Merchandise Privacy Policy Terms of Use facebook Twitter