TabNabber Tabs   Musician Supported
  Tabs de Piano
Espa˝ol English
Franšais Русский
Artista: # A B C D E F G H I J K L M N O P Q R S T U V W X Y Z
guitar

Guitar Tab, Acordes



(0 from 0 votes)
11,204 Vistas, ´┐Żltima Revisi´┐Żn 10 years ago
by: McGarrett


Tabber
[Tabber]
E|------------|------------|0-------0-1-|3-----------|------------|------------|
B|3-------0-1-|3-----------|----1-3-----|------------|1---3-1-0---|0---1-0-----|
G|----0-2-----|----0---0---|------------|----0---0---|----------2-|--------2-0-|
D|------------|------------|------------|------------|------------|------------|
A|------------|------------|------------|------------|------------|------------|
E|------------|------------|------------|------------|------------|------------|
E|                                                                                
B|------------|------------|------------|------------|------------|------------|
G|------------|------------|------------|------------|------------|------------|
D|------------|------------|------------|------------|------------|------------|
A|2-----------|------------|------------|------------|------------|------------|
E|2-------0---|2-----------|3-----------|2-----------|0-----------|------------|
E|3-----------|------------|------------|------------|------------|3-----------|



B|------------|------------|------------|------------|0-------0-1-|3-----------|
G|--------0---|0-----------|3-------0-1-|3-----------|----1-3-----|------------|
D|----0-2---0-|----2-------|----0-2-----|----0---0---|------------|----0---0---|
A|3-----------|------------|------------|------------|------------|------------|
E|------------|------------|------------|------------|------------|------------|
E|------------|------------|------------|------------|------------|------------|
B|                                                                                
G|------------|------------|------------|------------|------------|------------|
D|------------|------------|------------|------------|------------|------------|
A|------------|------------|------------|------------|------------|------------|
E|0-----------|0-----------|------------|------------|------------|------------|
E|----2-------|------3-2-0-|2-------0---|----2-------|3-----------|2---3-2-0---|
B|--------3---|----0-------|------------|3-------3---|------------|----------3-|



G|------------|------------|------------|------------||
D|1---3-1-0---|0---1-0-----|----0-------|------------||
A|----------2-|--------2-0-|2-----2-0---|0-----------||
E|------------|------------|----------3-|------------||
E|------------|------------|------------|------------||
B|------------|------------|------------|------------||
G|                                                                              
D|------------|------------|------------|------------||
A|------------|------------|------------|------------||
E|------------|------------|------------|------------||
E|------------|------------|----0-------|------------||
B|0-----------|--------2---|3-----------|------------||
G|--------1---|3-----------|--------0---|3-----------||







D|7---3-5-7-3-|5-----0-2---|3---0-2-3---|------------|--------0-1-|3---1---0---|
A|------------|----3-----3-|----------3-|2---0-1-----|--0-2-3-----|------------|
E|------------|------------|------------|--------2---|2-----------|------------|
E|------------|------------|------------|------------|------------|------------|
B|------------|------------|------------|------------|------------|------------|
G|------------|------------|------------|------------|------------|------------|
D|
A|------------|------------|------------|------------|------------|------------|
E|------------|------------|------------|------------|------------|------------|
E|------------|------------|------------|------------|------------|------------|
B|------------|------------|------------|------------|------------|----0-------|
G|------------|------------|------------|0-----------|0-----------|2-------4---|
D|3-----------|1-----------|0---3---0---|------------|------------|------------|



A|1-----------|------------|------------|0-----------|------------|------------|
E|--------2---|3-----------|3-----------|------------|3---2---0---|------------|
E|----2-------|------------|----0---0---|----0---0---|------------|2-0---0-2---|
B|------------|------------|------3-----|------3-----|------------|----3-------|
G|------------|------------|------------|------------|------------|------------|
D|------------|------------|------------|------------|------------|------------|
A|
E|------------|------------|------------|------------|------------|------------|
E|------------|------------|------------|------------|------------|------------|
B|------------|------------|------------|------------|------------|------------|
G|0-----------|0-------3---|----0-------|----2-------|------------|0-----------|
D|--------0---|------------|2-------2---|3-------3---|2---0-------|------------|
E|----1-------|----0-------|------------|------------|--------3---|------------|



E|------------|------------|------------|------------||
B|----------0-|1---0-------|0-3---------|------------||
G|------0-2---|--------2---|----0-------|0-----------||
D|0-2-3-------|------------|--------3---|0-----------||
A|------------|------------|------------|2-----------||
E|------------|------------|------------|------------||
E|
B|------------|------------|------------|------------||
G|------------|------------|------------|------------||
A|------------|------------|------------|------------||
E|------------|------------|------------|------------||
E|------------|----2---0---|2-----------|2-----------||
B|0-------1---|3-----------|--------0---|----0-------||


Login to Edit
Edit
YouTube
Video
View Sheet Music
Sheet
Music
Print
Speed:
Play Intro (login for the full song)
Play
Intro
Sustain:
Download midi (intro) ...

 Rate:
5 star
4 star
3 star
2 star
1 star
 

Comments (0)
 

No comments yet...

Comment on this tab   -   Unhelpful comments are exterminated.
  Your Guest Name:
      [Member Login]
  Comments:
 

Don't understand the tab?
See "How to Read Guitar Tabs".
Supported tags:
<i>italics</i>
<b>bold</b>
<u>underline</u>
<tab>tab lines</tab>
  Are you a spam robot?

If not, solve the equation:




[352 TabNabbers online]
©2020 TabNabber.com - Musician Supported Contact us Advertising Merchandise Privacy Policy Terms of Use facebook Twitter