TabNabber Tabs   Musician Supported
  Tabs de Piano
Espa˝ol English
Franšais Русский
Artista: # A B C D E F G H I J K L M N O P Q R S T U V W X Y Z
guitar

Guitar Tab, Acordes



(0 from 0 votes)
9,089 Vistas, ´┐Żltima Revisi´┐Żn 9 years ago
by: Enzola


Tabbenator
[Tabbenator]
*THIS TAB WAS NOT TABBED BY ME, ONLY PROVIDED FROM A DIFFERENT SOURCE FOR EDUCATIONAL PURPOSES*
Eb|--------------------------------------------------------------------------|
Bb|--------------------------------------------------------------------------|
Gb|--------------------------------------------------------------------------|
Db|--------------------------------------------------------------------------|
Ab|--7-10-7-8-7--7-10-7-8-7--7-10-7-8-----------------7-10-7-8-7--7-10-7-8-7-|
Db|--------------------------------------------------------------------------|
PM   . .  . . .  . .  . . .  . .  . .                 . .  . . .  . .  . . .



Eb|-------------------------------------------------------------------------|
Bb|-------------------------------------------------------------------------|
Gb|-----------------------------------|-------------------------------------|
Db|-----------------------------------|-------------------------------------|
Ab|-2---2---2--2---2---2--2---2-------|-2222222-----------------------------|
Db|-2h5-2h3-2--2h5-2h3-2--2h5-2h3-----|-2222222-----------------------------|
pm                                      .......

Verse

      Main Riff                   1.______
Eb|-------------------------------|-----------------------------------------|
Bb|-------------------------------|-------------------------------*5--------|
Gb|-------------------------------------------------------------*5----------|
Db|-2-2-2-2-2--2-2-2-2-2--2-2-2-2---2-2-2-2-2--2-2-2-2-2--2-2---------------|
Ab|-2-2-2-2-2--2-2-2-2-2--2-2-2-2---2-2-2-2-2--2-2-2-2-2--2-2---------------|
Db|-2-2-2-2-2--2-2-2-2-2--2-2-2-2---2-2-2-2-2--2-2-2-2-2--2-2---------------|
pm  . . . . .  . . . . .  . . . .   . . . . .  . . . . .  . .

2._______
|-------------------------------------------|
|-------------------------------------------|
--------------------------------------------|
-2-2-2-2-2--2-2-2-2-2----2-3333-------------|
-2-2-2-2-2--2-2-2-2-2----2-3333-------------|
-2-2-2-2-2--2-2-2-2-2----2-3333-------------|
 . . . . .  . . . . .    .


     Main Riff                      1._________
Eb|---------------------------------|----------------------------------------|
Bb|---------------------------------|-------------------------*5-------------|
Gb|---------------------------------------------------------*5---------------|
Db|--------------------------------------------------------------------------|
Ab|--------------------------------------------------------------------------|
Db|-2h5-2h3-2--2-2-2-2-2--2-2-2-2-----2h5-2h3-2--2-2-2-2-2-------------------|
pm             . . . . .  . . . .                . . . . .
 2._________
-|----------------------------------|
-|----------------------------------|
------------------------------------|
------------------------------------|
------------------------------------|
----2h5-2h3-2--2-2-2-2-2--2-3333----|
pm             . . . . .  .


Chorus


Eb|-------------------------------------------------------------------------|
Bb|----------*5-*5------------------*5---------------------*5-*5------------|
Gb|-----------------------------------*5------------------------------------|
Db|-2--2-3-2-------2-3-2---2--2-3-2------2-3-2---2--2-3-2---------2-3-2-----|
Ab|-2--2-3-2-------2-3-2---2--2-3-2------2-3-2---2--2-3-2---------2-3-2-----|
Db|-2--2-3-2-------2-3-2---2--2-3-2------2-3-2---2--2-3-2---------2-3-2-----|


Eb|-------------------------------------------------------------------------|
Bb|-----------*5-------------------------*5-*5-------------------*5---------|
Gb|-------------*5-------------------------------------------------*5-------|
Db|-2--2-3-2-------2------------2--2-3-2--------2-3-2---2--2-3-2------2-3-2-|
Ab|-2--2-3-2-------2/12~~~~-----2--2-3-2--------2-3-2---2--2-3-2------2-3-2-|
Db|-2--2-3-2-------2------------2--2-3-2--------2-3-2---2--2-3-2------2-3-2-|


Eb|-------------------------------------------------------------------------|
Bb|----------*5-*5-------------------*5-------------------------------------|
Gb|------------------------------------*5-----------------------------------|
Db|-2--2-3-2-------2-3-2----2--2-3-2-------2-3-2----------------------------|
Ab|-2--2-3-2-------2-3-2----2--2-3-2-------2-3-2----------------------------|
Db|-2--2-3-2-------2-3-2----2--2-3-2-------2-3-2----------------------------|


Bridge

Eb|-------------------------------------------------------------------------|
Bb|-------------------------------------------------------------------------|
Gb|-------------------------------------------------------------------------|
Db|-------------------------------------------------------------------------|
Ab|-------------------------------------------------------------------------|
Db|--4~-x-x--10-11--11/14~~-x-x-11-10--x-x---2------------------------------|


Eb|-------------------------------------------------------------------------|
Bb|-------------------------------------------------------------------------|
Gb|-------------------------------------------------------------------------|
Db|--2-xx--10-11--2-2-x--10-11----------------------------------------------|
Ab|--2-xx--10-11--2-2-x--10-11----------------------------------------------|
Db|--2-xx--10-11--2-2-x--10-11----------------------------------------------|


Outro

Eb|-------------------------------------------------------------------------|
Bb|-------------------------------------------------------------------------|
Gb|-------------------------------------------------------------------------|
Db|-------------------------------------------------------------------------|
Ab|----9-12-9-10-9--9-12-9-10-9--9-12-9-10----------------------------------|
Db|-------------------------------------------------------------------------|


Eb|-------------------------------------------------------------------------|
Bb|-------------------------------------------------------------------------|
Gb|-------------------------------------------------------------------------|
Db|-------------------------------------------------------------------------|
Ab|-4---4---4--4---4---4--4---4---------------------------------------------|
Db|-4h7-4h5-4--4h7-4h5-4--4h7-4h5-------------------------------------------|


Login to Edit
Edit
YouTube
Video
View Sheet Music
Sheet
Music
Print
Speed:
Play Intro (login for the full song)
Play
Intro
Sustain:
Download midi (intro) ...

 Rate:
5 star
4 star
3 star
2 star
1 star
 

Comments (0)
 

No comments yet...

Comment on this tab   -   Unhelpful comments are exterminated.
  Your Guest Name:
      [Member Login]
  Comments:
 

Don't understand the tab?
See "How to Read Guitar Tabs".
Supported tags:
<i>italics</i>
<b>bold</b>
<u>underline</u>
<tab>tab lines</tab>
  Are you a spam robot?

If not, solve the equation:




[793 TabNabbers online]
©2020 TabNabber.com - Musician Supported Contact us Advertising Merchandise Privacy Policy Terms of Use facebook Twitter