TabNabber Tabs   Musician Supported
  Tabs de Piano
Espa˝ol English
Franšais Русский
Artista: # A B C D E F G H I J K L M N O P Q R S T U V W X Y Z
guitar

Guitar Tab, Acordes



(0 from 0 votes)
9,424 Vistas, ´┐Żltima Revisi´┐Żn 9 years ago
by: Olga
guest
[Guest]
MI                  La
1-0-1-0-1-0--4--0-1-0--4--0-1-0--5-----------
2---------------------------------5----------
3-----------------------------------5--------
  
         LA7                      re
1-5-6-5-6-5-6--5-4-5--6-5-6--5-4-5--6-5-3-1-1
2--------------------------------------------
   
  La         MI     La           
e---5--3--1--0----------------------0--------
b--6--5--3--1---3--1--0-------------1--------
g--------------4--2---1-----------2----------
d------------------------2-2-0--2------------
a------------------------------3-------------
e-
  
          MI                       La
1---4--7---10--9--10--9--10--9--10---12--10--8--8
2--5--5--5-12--11-12--11-12--11-12---13--12-10--10
  
          MI                       La
1---4--7---10--9--10--9--10--9--10---12--10--8--8
2--5--5--5-12--11-12--11-12--11-12---13--12-10--10
  
          La7                     re
1-5-6-5-6-5-6--5-4-5--6-5-6--5-4-5--6-5-3-1-1
2--------------------------------------------
     
        La            MI          La      
1-5-5--3-3--1-1--0--0--1-1---------0--------5--8
2------------------3-------3-3-2-3---3-----5---10
3--------------------------------------0--5-----9


Login to Edit
Edit
YouTube
Video
View Sheet Music
Sheet
Music
Print
Speed:
Play Intro (login for the full song)
Play
Intro
Sustain:
Download midi (intro) ...

 Rate:
5 star
4 star
3 star
2 star
1 star
 

Comments (0)
 

No comments yet...

Comment on this tab   -   Unhelpful comments are exterminated.
  Your Guest Name:
      [Member Login]
  Comments:
 

Don't understand the tab?
See "How to Read Guitar Tabs".
Supported tags:
<i>italics</i>
<b>bold</b>
<u>underline</u>
<tab>tab lines</tab>
  Are you a spam robot?

If not, solve the equation:




[432 TabNabbers online]
©2020 TabNabber.com - Musician Supported Contact us Advertising Merchandise Privacy Policy Terms of Use facebook Twitter