TabNabber Tabs   Musician Supported
  Tabs de Piano
Espa˝ol English
Franšais Русский
Artista: # A B C D E F G H I J K L M N O P Q R S T U V W X Y Z
electric guitar

Guitar Tab, Acordes



(5 from 1 votes)
6,935 Vistas, ´┐Żltima Revisi´┐Żn 8 years ago
by: Tunder


Tab Guru
[Tab Guru]
Just some random riffs from me ;)
I hope you like it, if you have ANY guitar tab requests, please comment.

e|----------------|----------------|----------------|----------------|
b|----------------|----------------|----------------|----------------|
g|----------------|----------------|----------------|----------------|
d|----------------|----------------|----------------|----------------|
a|----------------|----------------|----------------|----------------|
d|7-000-6-000-5-0-|4-000-5-000-6-0-|7-000-6-000-5-0-|4-000-5-000-6-0-|

e|----------------|----------------|----------------|----------------|
b|----------------|----------------|----------------|----------------|
g|----------------|----------------|----------------|----------------|
d|----------------|----------------|----------------|----------------|
a|----------------|----------------|----------------|----------------|
d|7-000-6-000-5-0-|4-000-5-000-6-0-|7-000-6-000-5-0-|4-000-5-000-6-0-|

e|----------------|----------------|----------------|----------------|
b|----------------|----------------|----------------|----------------|
g|----------------|----------------|----------------|----------------|
d|----------------|----------------|----------------|----------------|
a|----------------|----------------|----------------|----------------|
d|7-000-6-000-5-0-|4-000-5-000-6-0-|7-000-6-000-5-0-|4-000-5-000-6-0-|

e|----------------|----------------|----------------|----------------|
b|----------------|----------------|----------------|----------------|
g|----------------|----------------|----------------|----------------|
d|----------------|----------------|----------------|----------------|
a|----------------|----------------|----------------|----------------|
d|7-000-6-000-5-0-|4-000-5-000-6-0-|7-000-6-000-5-0-|4-000-5-000-6-0-|

next riff around 128bpm

e|----------------|----------------|----------------|----------------|
b|----------------|----------------|----------------|----------------|
g|----------------|----------------|----------------|----------------|
d|2-2-2-5-7-9-0-0-|2-2-2-5-7-9-0-0-|2-2-2-5-7-9-0-0-|2-2-2-5-7-9-0-0-|
a|2-2-2-5-7-9-0-0-|2-2-2-5-7-9-0-0-|2-2-2-5-7-9-0-0-|2-2-2-5-7-9-0-0-|
d|2-2-2-5-7-9-0-0-|2-2-2-5-7-9-0-0-|2-2-2-5-7-9-0-0-|2-2-2-5-7-9-0-0-|

e|----------------|----------------|----------------|----------------|
b|----------------|----------------|----------------|----------------|
g|----------------|----------------|----------------|----------------|
d|2-2-2-5-7-9-0-0-|2-2-2-5-7-9-0-0-|2-2-2-5-7-9-0-0-|2-2-2-5-7-9-0-0>|
a|2-2-2-5-7-9-0-0-|2-2-2-5-7-9-0-0-|2-2-2-5-7-9-0-0-|2-2-2-5-7-9-0-0>|
d|2-2-2-5-7-9-0-0-|2-2-2-5-7-9-0-0-|2-2-2-5-7-9-0-0-|2-2-2-5-7-9-0-0>|

e|----------------|----------------|----------------|
b|----------------|----------------|----------------|
g|----------------|----------------|----------------|
d|>>>>>>>>>>>>0-0>|>>>>>>>>>>0-0>>>|>>>>>>>>>>>>0-0-|
a|>>>>>>>>>>>>0-0>|>>>>>>>>>>0-0>>>|>>>>>>>>>>>>0-0-|
d|>>>>>>>>>>>>0-0>|>>>>>>>>>>0-0>>>|>>>>>>>>>>>>0-0-|


Login to Edit
Edit
YouTube
Video
View Sheet Music
Sheet
Music
Print
Speed:
Play Intro (login for the full song)
Play
Intro
Sustain:
Download midi (intro) ...

1 Votes
5 star: 100%  (1)
4 star:  (0)
3 star:  (0)
2 star:  (0)
1 star:  (0)
0 star:  (0)
 Rate:
5 star
4 star
3 star
2 star
1 star
 

Comments (0)
 

No comments yet...

Comment on this tab   -   Unhelpful comments are exterminated.
  Your Guest Name:
      [Member Login]
  Comments:
 

Don't understand the tab?
See "How to Read Guitar Tabs".
Supported tags:
<i>italics</i>
<b>bold</b>
<u>underline</u>
<tab>tab lines</tab>
  Are you a spam robot?

If not, solve the equation:




[1002 TabNabbers online]
©2020 TabNabber.com - Musician Supported Contact us Advertising Merchandise Privacy Policy Terms of Use facebook Twitter