TabNabber Tabs   Musician Supported
  Tabs de Piano
Espa˝ol English
Franšais Русский
Artista: # A B C D E F G H I J K L M N O P Q R S T U V W X Y Z
bass

Bass Guitar Tab, Acordes



(5 from 2 votes)
19,871 Vistas, ´┐Żltima Revisi´┐Żn 7 years ago
by: z1mEk
guest
[Guest]
G|---------4p--5p------
D|---------------------
A|---5s--2s--3s--5s-5s- x2
E|-0s--0s--------------

G|------7p-5p-----7p-5ph7p-----7p-5p------------------
D|----------------------------------------------------
A|-5s-5s-----5s-5s--------5s-5s-----5s-5s------2s--3s- x2
E|----------------------------------------5s-5s--5s---

G|---------------------------------------------
D|------------------3ph5-----------------------
A|---------------------------------------2s-3s-
E|-3s-3s-3s-3s-3s-3s----3s-3s-3s-3s-3s-3s------



Login to Edit
Edit
YouTube
Video
View Sheet Music
Sheet
Music
Print
Speed:
Play Intro (login for the full song)
Play
Intro
Sustain:
Download midi (intro) ...

2 Votes
5 star: 100%  (2)
4 star:  (0)
3 star:  (0)
2 star:  (0)
1 star:  (0)
0 star:  (0)
 Rate:
5 star
4 star
3 star
2 star
1 star
 

Comments (0)
 

No comments yet...

Comment on this tab   -   Unhelpful comments are exterminated.
  Your Guest Name:
      [Member Login]
  Comments:
 

Don't understand the tab?
See "How to Read Guitar Tabs".
Supported tags:
<i>italics</i>
<b>bold</b>
<u>underline</u>
<tab>tab lines</tab>
  Are you a spam robot?

If not, solve the equation:




[322 TabNabbers online]
©2020 TabNabber.com - Musician Supported Contact us Advertising Merchandise Privacy Policy Terms of Use facebook Twitter