TabNabber Tabs   Musician Supported
  Tabs de Piano
Espa˝ol English
Franšais Русский
Artista: # A B C D E F G H I J K L M N O P Q R S T U V W X Y Z
guitar

Guitar Tab, Acordes



(0 from 0 votes)
7,368 Vistas, ´┐Żltima Revisi´┐Żn 7 years ago
by: Jon L
guest

Tabbenator
[Tabbenator]
This is my interpretation of Joe's guitar parts and some of Gwil's.

Most of these guys songs have the guitars tuned to Open D, supposedly. 
The first half of the tab below has been transposed for standard tuning.

ignore this, this is my own translator for transposing
 e -> d = -2 | 0
 b -> a = -2 | 0
 g -> f#= -1 |+1
 d -> d = 0  |+2
 a -> a = 0  |+2 
 e -> d = -2 | 0

0:51
e |-----------------9----7--5---10---10---9----0----0----0-------------------|
b |-10---10---9-----------------10---10---10---10---9----9-------------------|
g |-11---11---11-------------------------------------------------------------|
D |--------------------------------------------------------------------------|
A |--------------------------------------------------------------------------|
e |-10---9----0-----5----5--5---10---9---------------------------------------|

e |----0----------0---------0---------0---------0--------0--------9~-9-7-5-0-|
b |------10---------10--------10--------10--------9--------9-----------------|
g |---------11---------11--------11--------11-------11-------11--------------|
D |--------------------------------------------------------------------------|
A |--------------------------------------------------------------------------|
e |-10---------10---------9---------9---------0--------0----------5~---------|

e |-10----10----10----10----10----10----10----10-----9--9--9--9--12-12-12-12-|
b |----10----10----10----10----10----10----10----10--10-10-10-10-------------|
g |--------------------------------------------------------------------------|
D |--------------------------------------------------------------------------|
A |--------------------------------------------------------------------------|
e |-10----------------------9------------------------------------------------|

e |--------------------------------------------------------------------------|
b |--------------------------------------------------------------------------|
g |--------------------------------------------------------------------------|
D |--------------------------------------------------------------------------|
A |--------------------------------------------------------------------------|
e |-2------5---4---0--2------5---4--0----------------------------------------|

This riff gets repeated some times, easy to figure out when and where to
start it.

Of all the feckless men that queue to be the next:
e |-9--7--0--9--7--0--9--0--9--7--0--9--7--0--9--7---------------------------|
b |-9--9--9--9--9--9--9--9--9--9--9--9--9--9--9--9---------------------------|
g |-------------------------------------------------[-x2-]-------------------|
D |11-11-11-11-11-11-11-11-11-11-11-11-11-11-11-11---------------------------|
A |--------------------------------------------------------------------------|
e |--------------------------------------------------------------------------|

The other guitarist plays the following. He plays it in normal tuning, but
I tabbed it for this tuning. Just lower it two frets if you are in normal
tuning.
e |-14--11-------------------------------------------------------------------|
b |---------14--12---------------14------------------------------------------|
g |-------------------[x-a-lot]----------------------------------------------|
D |--------------------------------------------------------------------------|
A |--------------------------------------------------------------------------|
e |--------------------------------------------------------------------------|

Meanwhile, open D guitar plays this:
Steepled fingers...
D |-9--7--0--9--7--0--9--0--9--7--0--9--7--0--9--7--|
A |-9--9--9--9--9--9--9--9--9--9--9--9--9--9--9--9--|
F#|-------------------------------------------------|
D |-9--9--9--9--9--9--9--9--9--9--9--9--9--9--9--9--|
A |-------------------------------------------------|
D |-------------------------------------------------|

D |-9--7--0--9--7--0--9--0--9--7--0--9--7--0--9--7--|
A |-9--9--9--9--9--9--9--9--9--9--9--9--9--9--9--9--|
F#|-------------------------------------------------|
D |-0--0--0--0--0--0--0--0--0--0--0--0--0--0--0--0--|
A |-------------------------------------------------|
D |-------------------------------------------------|

D |-9--7--0--9--7--0--9--0--9--9--9--9--9--9--7--7--|
A |-9--9--9--9--9--9--9--9--9--9--9--9--9--9--9--9--|
F#|-------------------------------------------------|
D |-------------------------------------------------|
A |-9--9--9--9--9--9--9--9--0--0--0--0--0--0--0--0--|
D |-------------------------------------------------|

D |-9--7--0--9--7--0--9--0--9--7--0--9--7--0--9--7--|
A |-9--9--9--9--9--9--9--9--9--9--9--9--9--9--9--9--|
F#|-------------------------------------------------|
D |-------------------------------------------------|
A |-------------------------------------------------|
D |-9--9--9--9--9--9--9--9--9--9--9--9--9--9--9--9--|

Repeat it once, but add this at the end:

D |-9--|
A |-9--|
F#|----|
D |----|
A |----|
D |-9--|

In your hoof lies the heartland...
D |--------------------------------------------------------------------------|
A |--------------------------------------------------------------------------|
F#|--------------------------------------------------------------------------|
D |--------------------------------------------------------------------------|
A |--------------------------------------------------------------------------|
D |-----------0--------2--2--2--2--2--0--0--0--2--2--2--2--2--2--0--0--2--2--|


D |----------------------------------|
A |----------------------------------|
F#|----------------------------------|
D |----------------------------------|
A |----------------------------------|
D |-2--2--2--2--2--2--2--2--2--2--2--|

Open D guitar doesn't play anything now, but the other one does. He probably
did earlier but I am too lazy to tab. But here it's just filled with
D |----|
A |----|
F#|----| 
D |-12-| Times a million.
A |----|
D |----|

Blended by the lights!
D |--------------------------------------2-----------------------------------|
A |--------------------------------------2-----------------------------------|
F#|--------------------------------------2-----------------------------------|
D |--------------------------------------2-----------------------------------|
A |--------------------------------------2-----------------------------------|
D |--------5---4---0--2------5---4--0----2-------5---4---0--2------5---4--0--|



The other way to play this is by tuning to: Open D (DADF#AD)
Here's the original tab in case you want to try it like that:


0:51
D |-----------------9----7--5---10---10---9----0----0----0-------------------|
A |-10---10---9-----------------10---10---10---10---9----9-------------------|
F#|-10---10---10-------------------------------------------------------------|
D |--------------------------------------------------------------------------|
A |--------------------------------------------------------------------------|
D |-10---9----0-----5----5--5---10---9---------------------------------------|

D |----0----------0---------0---------0---------0--------0--------9~-9-7-5-0-|
A |------10---------10--------10--------10--------9--------9-----------------|
F#|---------10---------10--------10--------10-------10-------10--------------|
D |--------------------------------------------------------------------------|
A |--------------------------------------------------------------------------|
D |-10---------10---------9---------9---------0--------0----------5~---------|

D |-10----10----10----10----10----10----10----10-----9--9--9--9--12-12-12-12-|
A |----10----10----10----10----10----10----10----10--10-10-10-10-------------|
F#|--------------------------------------------------------------------------|
D |--------------------------------------------------------------------------|
A |--------------------------------------------------------------------------|
D |-10----------------------9------------------------------------------------|

D |--------------------------------------------------------------------------|
A |--------------------------------------------------------------------------|
F#|--------------------------------------------------------------------------|
D |--------------------------------------------------------------------------|
A |--------------------------------------------------------------------------|
D |-2------5---4---0--2------5---4--0----------------------------------------|

This riff gets repeated some times, easy to figure out when and where to
start it.

Of all the feckless men that queue to be the next:
D |-9--7--0--9--7--0--9--0--9--7--0--9--7--0--9--7---------------------------|
A |-9--9--9--9--9--9--9--9--9--9--9--9--9--9--9--9---------------------------|
F#|-------------------------------------------------[-x2-]-------------------|
D |-9--9--9--9--9--9--9--9--9--9--9--9--9--9--9--9---------------------------|
A |--------------------------------------------------------------------------|
D |--------------------------------------------------------------------------|

The other guitarist plays the following. He plays it in normal tuning, but
I tabbed it for this tuning. Just lower it two frets if you are in normal
tuning.
D |-14--11-------------------------------------------------------------------|
A |---------14--12---------------14------------------------------------------|
F#|-------------------[x-a-lot]----------------------------------------------|
D |--------------------------------------------------------------------------|
A |--------------------------------------------------------------------------|
D |--------------------------------------------------------------------------|

Meanwhile, open D guitar plays this:
Steepled fingers...
D |-9--7--0--9--7--0--9--0--9--7--0--9--7--0--9--7--|
A |-9--9--9--9--9--9--9--9--9--9--9--9--9--9--9--9--|
F#|-------------------------------------------------|
D |-9--9--9--9--9--9--9--9--9--9--9--9--9--9--9--9--|
A |-------------------------------------------------|
D |-------------------------------------------------|

D |-9--7--0--9--7--0--9--0--9--7--0--9--7--0--9--7--|
A |-9--9--9--9--9--9--9--9--9--9--9--9--9--9--9--9--|
F#|-------------------------------------------------|
D |-0--0--0--0--0--0--0--0--0--0--0--0--0--0--0--0--|
A |-------------------------------------------------|
D |-------------------------------------------------|

D |-9--7--0--9--7--0--9--0--9--9--9--9--9--9--7--7--|
A |-9--9--9--9--9--9--9--9--9--9--9--9--9--9--9--9--|
F#|-------------------------------------------------|
D |-------------------------------------------------|
A |-9--9--9--9--9--9--9--9--0--0--0--0--0--0--0--0--|
D |-------------------------------------------------|

D |-9--7--0--9--7--0--9--0--9--7--0--9--7--0--9--7--|
A |-9--9--9--9--9--9--9--9--9--9--9--9--9--9--9--9--|
F#|-------------------------------------------------|
D |-------------------------------------------------|
A |-------------------------------------------------|
D |-9--9--9--9--9--9--9--9--9--9--9--9--9--9--9--9--|

Repeat it once, but add this at the end:

D |-9--|
A |-9--|
F#|----|
D |----|
A |----|
D |-9--|

In your hoof lies the heartland...
D |--------------------------------------------------------------------------|
A |--------------------------------------------------------------------------|
F#|--------------------------------------------------------------------------|
D |--------------------------------------------------------------------------|
A |--------------------------------------------------------------------------|
D |-----------0--------2--2--2--2--2--0--0--0--2--2--2--2--2--2--0--0--2--2--|


D |----------------------------------|
A |----------------------------------|
F#|----------------------------------|
D |----------------------------------|
A |----------------------------------|
D |-2--2--2--2--2--2--2--2--2--2--2--|

Open D guitar doesn't play anything now, but the other one does. He probably
did earlier but I am too lazy to tab. But here it's just filled with
D |----|
A |----|
F#|----| 
D |-12-| Times a million.
A |----|
D |----|

Blended by the lights!
D |--------------------------------------2-----------------------------------|
A |--------------------------------------2-----------------------------------|
F#|--------------------------------------2-----------------------------------|
D |--------------------------------------2-----------------------------------|
A |--------------------------------------2-----------------------------------|
D |--------5---4---0--2------5---4--0----2-------5---4---0--2------5---4--0--|


************************************

| /   slide up
| \   slide down
| h   hammer-on
| p   pull-off
| ~   vibrato
| +   harmonic
| x   Mute note
| b   Bend
| pb  Pre-bend
| br  Bend release
| pbr Pre-bend release
| brb Bend release bend

************************************


Login to Edit
Edit
YouTube
Video
View Sheet Music
Sheet
Music
Print
Speed:
Play Intro (login for the full song)
Play
Intro
Sustain:
Download midi (intro) ...

 Rate:
5 star
4 star
3 star
2 star
1 star
 

Comments (0)
 

No comments yet...

Comment on this tab   -   Unhelpful comments are exterminated.
  Your Guest Name:
      [Member Login]
  Comments:
 

Don't understand the tab?
See "How to Read Guitar Tabs".
Supported tags:
<i>italics</i>
<b>bold</b>
<u>underline</u>
<tab>tab lines</tab>
  Are you a spam robot?

If not, solve the equation:




[557 TabNabbers online]
©2020 TabNabber.com - Musician Supported Contact us Advertising Merchandise Privacy Policy Terms of Use facebook Twitter