TabNabber Tabs   Musician Supported
  Tabs de Piano
Espa˝ol English
Franšais Русский
Artista: # A B C D E F G H I J K L M N O P Q R S T U V W X Y Z
guitar

Guitar Tab, Acordes



(5 from 2 votes)
6,823 Vistas, ´┐Żltima Revisi´┐Żn 6 years ago
by: swedishghostmissle
guest

Tabber
[Tabber]
e|------------------------------------------|
B|-10--8----10--10--8-----------------------|
G|-9---9----9---9---9---7--5---9--9--7------|
D|----------------------7--7---7--7--7------|
A|------------------------------------------|
E|------------------------------------------|


e|--------------------|----------------------|
B|-10--8----10--10--8-|----------------------|
G|-9---9----9---9---9-|--7--5---9--9--7------|
D|--------------------|--7--7---7--7--7------|
A|--------------------|----------------------|
E|--------------------|----------------------|
                       the solo 1 is playing
                       here by guitar II
                       
   
 solo 1
e|-----------------------------------------------------------------------|
B|-5p3p0-------------------b15--12---------------------------------------|
G|--------4p2p0--0h2----------------b14--12--14--b14--12-----------------|
D|--------------------------------------------------------14--12--12h14--|
A|-----------------------------------------------------------------------|
E|-----------------------------------------------------------------------|


e|------------------------------------------|
B|-10--8----10--10--8-----------------------|
G|-9---9----9---9---9---7--5---9--9--7------|
D|----------------------7--7---7--7--7------|
A|------------------------------------------|
E|------------------------------------------|


e|------------------------------------------|
B|-10--8----10--10--8-----------------------|
G|-9---9----9---9---9---7--5---9--9--7------|
D|----------------------7--7---7--7--7------|
A|------------------------------------------|
E|------------------------------------------|

 Verse

e|------------------------|
B|-8----------------------|
G|-9-----12-----4-----9---| 2 times
D|-9-----12-----4-----9---|
A|-7-----10-----2-----7---|
E|------------------------|
 the rythm is very easy to find


 Chorus
e|------------------------------------------|
B|-10--8----10--10--8-----------------------|
G|-9---9----9---9---9---7--5---9--9--7------|  2 times
D|----------------------7--7---7--7--7------|
A|------------------------------------------|
E|------------------------------------------|


Verse

e|------------------------|
B|-8----------------------|
G|-9-----12-----4-----9---| 2 times
D|-9-----12-----4-----9---|
A|-7-----10-----2-----7---|
E|------------------------|


 Chorus
e|------------------------------------------|
B|-10--8----10--10--8-----------------------|
G|-9---9----9---9---9---7--5---9--9--7------|  4 times
D|----------------------7--7---7--7--7------|
A|------------------------------------------|
E|------------------------------------------|
 


e|-5--7-------------------------5--7-----------------------|
B|-5--5-------------------------5--5-----------------------|
G|-5------7----7--7--9----7--5--5-----7----7--7--9--7--5---|
D|--------7----7--7--9----7--5--------7----7--7--9--7--5---|
A|--------5----5--5--7----5--3--------5----5--5--7--5--3---|
E|---------------------------------------------------------|


e|-5--7---------------------------5--7-------------------------------------|
B|-5--5---------------------------5--5-------------------------------------|
G|-5------7----7--7--9----7--5----5-----7-------4--4-4-4-4-4-4-4-4-4-4-4-4-|
D|--------7----7--7--9----7--5----------7----2--4--4-4-4-4-4-4-4-4-4-4-4-4-|
A|--------5----5--5--7----5--3----------5----2--2--2-2-2-2-2-2-2-2-2-2-2-2-|
E|-------------------------------------------------------------------------|

        
  solo 2
e|-------------------------------------------------------------------------|
B|---------8--b10--10--8--------8h10p8-----10--b10--8-----8--b15--b15------|
G|------7--7--------------9--7----------9--------------9-------------------|
D|-7h9---------------------------------------------------------------------|
A|-------------------------------------------------------------------------|
E|-------------------------------------------------------------------------|

e|---------------------------------------------|
B|-12--15--12------12--------------------------|
G|-------------14------b14--12------12--b14----|
D|------------------------------14-------------|
A|---------------------------------------------|
E|---------------------------------------------|

Chorus
e|------------------------------------------|
B|-10--8----10--10--8-----------------------|
G|-9---9----9---9---9---7--5---9--9--7------|  repeat until the end
D|----------------------7--7---7--7--7------|
A|------------------------------------------|
E|------------------------------------------|
 

| b  bend
| h  hammer-on
| p  pull-off
==========================================================================


Login to Edit
Edit
YouTube
Video
View Sheet Music
Sheet
Music
Print
Speed:
Play Intro (login for the full song)
Play
Intro
Sustain:
Download midi (intro) ...

2 Votes
5 star: 100%  (2)
4 star:  (0)
3 star:  (0)
2 star:  (0)
1 star:  (0)
0 star:  (0)
 Rate:
5 star
4 star
3 star
2 star
1 star
 

Comments (0)
 

No comments yet...

Comment on this tab   -   Unhelpful comments are exterminated.
  Your Guest Name:
      [Member Login]
  Comments:
 

Don't understand the tab?
See "How to Read Guitar Tabs".
Supported tags:
<i>italics</i>
<b>bold</b>
<u>underline</u>
<tab>tab lines</tab>
  Are you a spam robot?

If not, solve the equation:




[1072 TabNabbers online]
©2020 TabNabber.com - Musician Supported Contact us Advertising Merchandise Privacy Policy Terms of Use facebook Twitter