TabNabber Tabs   Musician Supported
  Tabs de Piano
Espa˝ol English
Franšais Русский
Artista: # A B C D E F G H I J K L M N O P Q R S T U V W X Y Z
guitar

Guitar Tab, Acordes



(0 from 0 votes)
6,599 Vistas, ´┐Żltima Revisi´┐Żn 6 years ago
by: asd
guest
[Guest]
e|------------------------------------------------------------------------------------------|
b|---------------------------------------1--0--1--
G|-0--0---0--0--0--------------2---2------------
D|---------------------3--2--3--------------------
a|------------------------------------------------
e|------------------------------------------------

Raghupati Raghav Raja Ram, 

G|-2--3--2--0-------------3--2--0----
D|---------------3--2--3---------------
Patit Pavan Sita Ram

B|-0--0---0--0--0------0--1--0--1---
G|--------------------2------------------
Ishwar Allah Tero Naam, 

e|---------------------------------------
B|--------1--3--4--3--1---------------------
G|-2--2--------------------3--2--3--2--0---------------------------------------------------------------------------|
g|------------------------------------------------------------------------------------------|
d|------------------------------------------------------------------------------------------|
a|------------------------------------------------------------------------------------------|
e|------------------------------------------------------------------------------------------|


Login to Edit
Edit
YouTube
Video
View Sheet Music
Sheet
Music
Print
Speed:
Play Intro (login for the full song)
Play
Intro
Sustain:
Download midi (intro) ...

 Rate:
5 star
4 star
3 star
2 star
1 star
 

Comments (0)
 

No comments yet...

Comment on this tab   -   Unhelpful comments are exterminated.
  Your Guest Name:
      [Member Login]
  Comments:
 

Don't understand the tab?
See "How to Read Guitar Tabs".
Supported tags:
<i>italics</i>
<b>bold</b>
<u>underline</u>
<tab>tab lines</tab>
  Are you a spam robot?

If not, solve the equation:




[850 TabNabbers online]
©2020 TabNabber.com - Musician Supported Contact us Advertising Merchandise Privacy Policy Terms of Use facebook Twitter