TabNabber Tabs   Musician Supported
  Tabs de Piano
Espa˝ol English
Franšais Русский
Artista: # A B C D E F G H I J K L M N O P Q R S T U V W X Y Z
guitar

Guitar Tab, Acordes


gg / gg


(0 from 0 votes)
3,547 Vistas, ´┐Żltima Revisi´┐Żn 5 years ago
by: Anonymous
guest
[Guest]
e|------------------------------------------------------------------------------------------|
b|------------------------------------------------------------------------------------------|
g|------------------------------------------------------------------------------------------|
d|------------------------------------------------------------------------------------------|
a|------------------------------------------------------------------------------------------|
e|------------------------------------------------------------------------------------------|e------------------------------------3------------3p0--|
b-0h1-1------3p1-1---------------3---3----------1-1----|
g-----0------2---2---------------0-----------0h2-2-----|
d---------2---------2---2------0--0----0---3-----3-----|
a-3---3------0---0-----------------2----2--------------|
E---------------------0---0-/3-------------------------|
^ ^
On 4th time riff changes slightly:
C Am Gadd9 F?
e------------------------------------3-----0---|
b-0h1-1------3p1-1---------------3---3-----1---|
g-----0------2---2---------------0---------2---|
d---------2---------2---2------0--0----0---3---|
a-3---3------0---0-----------------2----2--3---|
E---------------------0---0-/3-------------1---|


Login to Edit
Edit
YouTube
Video
View Sheet Music
Sheet
Music
Print
Speed:
Play Intro (login for the full song)
Play
Intro
Sustain:
Download midi (intro) ...

 Rate:
5 star
4 star
3 star
2 star
1 star
 

Comments (0)
 

No comments yet...

Comment on this tab   -   Unhelpful comments are exterminated.
  Your Guest Name:
      [Member Login]
  Comments:
 

Don't understand the tab?
See "How to Read Guitar Tabs".
Supported tags:
<i>italics</i>
<b>bold</b>
<u>underline</u>
<tab>tab lines</tab>
  Are you a spam robot?

If not, solve the equation:




[808 TabNabbers online]
©2020 TabNabber.com - Musician Supported Contact us Advertising Merchandise Privacy Policy Terms of Use facebook Twitter