TabNabber Tabs   Musician Supported
  Tabs de Piano
Espa˝ol English
Franšais Русский
Artista: # A B C D E F G H I J K L M N O P Q R S T U V W X Y Z
guitar

Guitar Tab, Acordes



(0 from 0 votes)
3,618 Vistas, ´┐Żltima Revisi´┐Żn 5 years ago
by: Anonymous
guest
[Guest]
E------------------------------------------------------------------------|
B------------------------------------------------------------------------|
G--------------------------7--7-7--7-7--4--4-4--4-4----------------------|
D-4--4-4--4-4\7--7-7--7-7--7--7-7--7-7--4--4-4--4-4----------------------|  
A-4--4-4--4-4\7--7-7--7-7--5--5-5--5-5--2--2-2--2-2----------------------|
D-4--4-4--4-4\7--7-7--7-7------------------------------------------------|

E------------------------------------------------------------------------|
B------------------------------------------------------------------------|
G--11-11-11-11--11-11--9--7--7--7--7--7-10-10-10-10-11-11-11-11----------|
D--11-11-11-11--11-11--9--7--7--7--7--7-10-10-10-10-11-11-11-11----------|
A---9--9--9--9---9--9--7--5--5--5--5--5--8--8--8--8--9--9--9--9----------|
D------------------------------------------------------------------------|


E------------------------------------------------------------------------|
B------------------------------------------------------------------------|
G------------------------------------------------------------------------|
D-4--4-4h7--4-4--4-4h7-4-4--4-4h7-4-4p0----------------------------------|
A-4--4-4h7--4-4--4-4h7-4-4--4-4h7-4-4p0----------------------------------|
D-4--4-4h7--4-4--4-4h7-4-4--4-4h7-4-4p0----------------------------------|


Login to Edit
Edit
YouTube
Video
View Sheet Music
Sheet
Music
Print
Speed:
Play Intro (login for the full song)
Play
Intro
Sustain:
Download midi (intro) ...

 Rate:
5 star
4 star
3 star
2 star
1 star
 

Comments (0)
 

No comments yet...

Comment on this tab   -   Unhelpful comments are exterminated.
  Your Guest Name:
      [Member Login]
  Comments:
 

Don't understand the tab?
See "How to Read Guitar Tabs".
Supported tags:
<i>italics</i>
<b>bold</b>
<u>underline</u>
<tab>tab lines</tab>
  Are you a spam robot?

If not, solve the equation:




[730 TabNabbers online]
©2020 TabNabber.com - Musician Supported Contact us Advertising Merchandise Privacy Policy Terms of Use facebook Twitter