TabNabber Tabs   Musician Supported
  Tabs de Piano
Espa˝ol English
Franšais Русский
Artista: # A B C D E F G H I J K L M N O P Q R S T U V W X Y Z
guitar

Guitar Tab, Acordes



(5 from 1 votes)
3,776 Vistas, ´┐Żltima Revisi´┐Żn 5 years ago
by: Anonymous
guest
[Guest]
e:-----------------|-----------------|-----------------|-----------------|
B:-1---------1-----|-0---------0-----|-3---------0-----|-1---------1-----|
G:-------0-------0-|-------0-------0-|-------0-------0-|-------0-------0-|
D:-----2-------2---|-----2-------2---|-----2-------2---|-----2-------2---|
A:-3-------3-------|-3-------3-------|-3-------3-------|-3-------3-------|
E:-----------------|-----------------|-----------------|-----------------|

e:-----------------|-----------------|-----------------|-----------------|
B:-0---------0-----|-3---------3-----|-1---------1-----|-0---------0-----|
G:-------2-------2-|-------2-------2-|-------2-------2-|-------2-------2-|
D:-----2-------2---|-----2-------2---|-----2-------2---|-----2-------2---|
A:-0-------0-------|-0-------0-------|-0-------0-------|-0-------0-------|
E:-----------------|-----------------|-----------------|-----------------|

e:-----------------|-----------------|-----------------|-----------------|
B:-3---------3-----|-1---------1-----|-0---------0-----|-3---------3-----|
G:-------0-------0-|-------0-------0-|-------0-------0-|-------0-------0-|
D:-----2-------2---|-----2-------2---|-----2-------2---|-----2-------2---|
A:-3-------3-------|-3-------3-------|-3-------3-------|-3-------3-------|
E:-----------------|-----------------|-----------------|-----------------|

e:-----------------|-----------------|-----------------|-----------------|
B:-1---------1-----|-0---------0-----|-3---------3-----|-1---------------|
G:-------2-------2-|-------2-------2-|-------2-------2-|-------2---------|
D:-----2-------2---|-----2-------2---|-----2-------2---|-----2-----------|
A:-0-------0-------|-0-------0-------|-0-------0-------|-0-------0---2---|
E:-----------------|-----------------|-----------------|-----------------|

e:-----------------|-3---------3-----|-0---------------|-0---------------|
B:-1---------1-----|-3---------3-----|-1---------1-----|-1---------1-----|
G:-------0-------0-|-------0-------0-|-------2-------2-|-------2-------2-|
D:-----2-------2---|-----0-------0---|-----2-------2---|-----2-------2---|
A:-3-------3-------|-2-------2-------|-0-------0-------|-0-------0-------|
E:-----------------|-----------------|-----------------|-----------------|

e:-3---------3-----|-1---------1-----|-0---------------|-0---------------|
B:-3---------3-----|-------3-------3-|-1---------1-----|-1---------------|
G:-------0-------0-|-----2-------2---|-------2-------2-|-------2---------|
D:-----0-------0---|-0-------0-------|-----2-------2---|-----2-----------|
A:-----------------|-----------------|-0-------0-------|-0-------0---2---|
E:-3-------3-------|-----------------|-----------------|-----------------|

e:-----------------|-3---------3-----|-0---------------|-0---------------|
B:-1---------1-----|-3---------3-----|-1---------1-----|-1---------1-----|
G:-------0-------0-|-------0-------0-|-------2-------2-|-------2-------2-|
D:-----2-------2---|-----0-------0---|-----2-------2---|-----2-------2---|
A:-3-------3-------|-2-------2-------|-0-------0-------|-0-------0-------|
E:-----------------|-----------------|-----------------|-----------------|

e:-3---------3-----|-1---------1-----|-----------------|-----------------|
B:-3---------3-----|-------3-------3-|-1---------1-----|-1---------1-----|
G:-------0-------0-|-----2-------2---|-------2-------2-|-------2-------2-|
D:-----0-------0---|-0-------0-------|-----2-------2---|-----2-------2---|
A:-----------------|-----------------|-0-------0-------|-0-------0-------|
E:-3-------3-------|-----------------|-----------------|-----------------|

e:-----------------|-3---------3-----|-----------------|-----------------|
B:-3---------3-----|-3---------3-----|-1---------1-----|-1---------1-----|
G:-------2-------2-|-------0-------0-|-------2-------2-|-------2-------2-|
D:-----0-------0---|-----0-------0---|-----2-------2---|-----2-------2---|
A:-----------------|-----------------|-0-------0-------|-0-------0-------|
E:-2-------2-------|-3-------3-------|-----------------|-----------------|

e:-----------------|-3---------3-----|-----------------|---------3-------|
B:-3---------3-----|-3---------3-----|-0h1-------0-----|-0h1-----3-------|
G:-------2-------2-|-------0-------0-|-2---------------|-2-------0-------|
D:-----0-------0---|-----0-------0---|-------2-------2-|-----------------|
A:-----------------|-----------------|-0---------------|-0-------2-------|
E:-2-------2-------|-3-------3-------|-----------------|-----------------|

e:-----------------|-----------------|-3-----3---3-----|-3-----3---3-----|
B:-0-----1---0-----|-0-----1---0-----|-0---0-3---0-----|-0---0-3---0-----|
G:-2-----2---2-----|-2-----2---2-----|---------------0-|---------------0-|
D:-----2---------2-|-----2---------2-|-----------------|-----------------|
A:-0---------------|-0---------------|-----------------|-----------------|
E:-----------------|-----------------|-3---------------|-3---------------|

e:-----------------|-----------------|-1-----1---1-----|-----------------|
B:-0-----1---0-----|-0-----1---0-----|-3-----1---3-----|-0-----1---0-----|
G:-2-----2---2-----|-2-----2---2-----|-----2---------2-|-2-----2---2-----|
D:-----2---------2-|-----2---------2-|-0---------------|-----2---------2-|
A:-0---------------|-0---------------|-----------------|-0---------------|
E:-----------------|-----------------|-----------------|-----------------|


Login to Edit
Edit
YouTube
Video
View Sheet Music
Sheet
Music
Print
Speed:
Play Intro (login for the full song)
Play
Intro
Sustain:
Download midi (intro) ...

1 Votes
5 star: 100%  (1)
4 star:  (0)
3 star:  (0)
2 star:  (0)
1 star:  (0)
0 star:  (0)
 Rate:
5 star
4 star
3 star
2 star
1 star
 

Comments (0)
 

No comments yet...

Comment on this tab   -   Unhelpful comments are exterminated.
  Your Guest Name:
      [Member Login]
  Comments:
 

Don't understand the tab?
See "How to Read Guitar Tabs".
Supported tags:
<i>italics</i>
<b>bold</b>
<u>underline</u>
<tab>tab lines</tab>
  Are you a spam robot?

If not, solve the equation:




[209 TabNabbers online]
©2020 TabNabber.com - Musician Supported Contact us Advertising Merchandise Privacy Policy Terms of Use facebook Twitter