TabNabber Tabs   Musician Supported
  Tabs de Piano
Espa˝ol English
Franšais Русский
Artista: # A B C D E F G H I J K L M N O P Q R S T U V W X Y Z
guitar

Guitar Tab, Acordes



(0 from 0 votes)
3,638 Vistas, ´┐Żltima Revisi´┐Żn 5 years ago
by: Anonymous
guest
[Guest]
E|---3-0-3/5-3-0---------------------------
B|1--1-1-0---0-0--1----3--1--3/5-5\3--1----
G|0--0------------2------------------------
D|2---------------2--2---------------------
A|3---------------0------------------------
E|-----------------------------------------


  C                   Am
E|-----3---0-------------------------------
B|-----1---1----3--1-------0---------------
G|-----0-0------0-----0h2--0--0-----0----0-
D|--2--------2--2----------0----0h0--0h0---
A|3-------------------0--------------------
E|-----------------------------------------


Login to Edit
Edit
YouTube
Video
View Sheet Music
Sheet
Music
Print
Speed:
Play Intro (login for the full song)
Play
Intro
Sustain:
Download midi (intro) ...

 Rate:
5 star
4 star
3 star
2 star
1 star
 

Comments (0)
 

No comments yet...

Comment on this tab   -   Unhelpful comments are exterminated.
  Your Guest Name:
      [Member Login]
  Comments:
 

Don't understand the tab?
See "How to Read Guitar Tabs".
Supported tags:
<i>italics</i>
<b>bold</b>
<u>underline</u>
<tab>tab lines</tab>
  Are you a spam robot?

If not, solve the equation:




[106 TabNabbers online]
©2020 TabNabber.com - Musician Supported Contact us Advertising Merchandise Privacy Policy Terms of Use facebook Twitter