TabNabber Tabs   Musician Supported
  Tabs de Piano
Espa˝ol English
Franšais Русский
Artista: # A B C D E F G H I J K L M N O P Q R S T U V W X Y Z
guitar

Guitar Tab, Acordes



(0 from 0 votes)
3,013 Vistas, ´┐Żltima Revisi´┐Żn 5 years ago
by: Anonymous
guest
[Guest]
E||-----------------------|-----------------------|-----------------------|---------------------|
B||--------3--------L-----|--------3--------L-----|--------3--------L-----|--------3------------|
G||--------4--------L-----|--------0--------L-----|--------4--------L-----|--------0------------|
D||-----4--------------4--|-----4--------------4--|-----4--------------4--|-----4---------------|
A||--2--------------------|--2--------------------|--2--------------------|--2------------------|
E||-----------------------|-----------------------|-----------------------|---------------------|


    
----------------------------|-----------------------|---------------------|
-----------2--3S--5--5-5-2--|--0-----0-----3--------|--------3------------|
-----4--4-----4----------2--|-----2--------4--------|--------4------------|
--4--4--------4----------2--|-----------4-----------|-----4---------------|
-----2--------2----------0--|--------2--------------|--2------------------|
----------------------------|-----------------------|---------------------|


 
--------------------------|-----------------------|-----------------2-2-2--|
-----------2--3--3--3--2--|--0-----0-----3--------|--------3---------------|
-----4--4-----4--------2--|-----2--------4--------|--------4---------------|
--4--4--------4--------2--|-----------4-----------|-----4------------------|
-----2--------2--------0--|--------2--------------|--2------------------2--|
--------------------------|-----------------------|------------------------|

  
--------0-0--L-0-0----------|-----------------------|---------------------|------------------------|
--0--2-------------2--0-----|--0-----3--------L-----|--------3------------|----------2--3----3--2--|
--------2-L--------2-----2--|--------4--------L-----|--------4------------|-----4-------4-------2--|
--------2-L--------2--------|-----4--------------4--|-----4---------------|--4--4-------4-------2--|
-------------------0--------|--2--------------------|--2------------------|-----2-------2-------0--|
----------------------------|-----------------------|---------------------|------------------------|


  
-----------------------|-----------------2-2-2--|--------0-0--L-0--------0--|
--0-----0-----3--------|--------3---------------|--0--2------------2--3-----|
-----2--------4--------|--------4---------------|--------2-L----------------|
-----------4-----------|-----4------------------|--------2-L----------------|
--------2--------------|--2------------------2--|------------------0--------|
-----------------------|------------------------|---------------------------|


        
-----------------------|---------------------|------------------------|-----------------------|
--0-----3--------L-----|--------3------------|----------2--3----3--2--|--0-----0-----3--------|
--------4--------L-----|--------4------------|-----4-------4-------2--|-----2--------4--------|
-----4--------------4--|-----4---------------|--4--4-------4-------2--|-----------4-----------|
--2--------------------|--2------------------|-----2-------2-------0--|--------2--------------|
-----------------------|---------------------|------------------------|-----------------------|


    
-----------------2-2-2--|--------0-0-L--0-0-------0--|-----------------------|---------------------|
--------3---------------|--0--2-------------2--3-----|--0-----3--------L-----|--------3------------|
--------4---------------|--------2-L-----------------|--------4--------L-----|--------4------------|
-----4------------------|--------2-L-----------------|-----4--------------4--|-----4---------------|
--2------------------2--|-------------------0--------|--2--------------------|--2------------------|
------------------------|----------------------------|-----------------------|---------------------|
   
    
--2--2--------------------|-----------------------|---------------------|-----------------------0--|
-----------2--3--5--5--2--|--0-----0-----3--------|--------3------------|--0--2--3-----3-----3-----|
-----------------------2--|-----2--------4--------|--------4------------|--------------4-----------|
--------4--------------2--|-----------4-----------|-----4---------------|-----------4-----4--------|
-----2--------2--------0--|--------2--------------|--2------------------|--------2-----------------|
--------------------------|-----------------------|---------------------|--------------------------|

 
--2-----2-----2--5--0-----|-----0h-2p-0-----------------|-----------------------0--|
--------3-----------------|--2-----------3--0-----0-----|--0--2--3-----3-----3-----|
-----2-----2-----------2--|--2--------------------0-----|--------------4-----------|
--0-----------------------|--2-----------------2-----2--|-----------4-----4--------|
--------------------0-----|-----------------------------|--------2-----------------|
--------------------------|-----------------0-----------|--------------------------|


     
--2-----2-----2--5--7----|--L----5----9--7--L----|--7--9--10----9----7----|--5----3----2----0----|
--------3----------------|-----------------------|------------------------|--3-------------------|
-----2-----2-------------|-----------------------|------------------------|----------------------|
--0-----------------5----|--L--------------------|---------9--------------|--0-------------------|
-------------------------|-----------------------|------------------------|----------------------|
-------------------------|---------------0-------|------------------------|-----------------3----|



--L-------2--0----------|----------------------------|--------------------------|
-----3-------------2----|--2-2-3----2-2-3----2S-3-5--|--3--2--0--------0--------|
-------------------2----|---------------0---------4--|-------------2-2------2-2-|
----------------2-------|------4---------------------|--------2-----------------|
-------------0----------|------2------------------0--|--L-----------------------|
--L---------------------|---------------3------------|--------0--------3--------|

  
-------------------------|-----------------------------|--------------------------|
--0----0-0-2--3--2--0----|--3-3-3--3--3--3--3--2s-3-5--|--3--2--0--------0--------|
-------------------------|-----------------------------|--------0----2-2------2-2-|
-------------------------|-----------------------------|--------------------------|
--------------------2----|------2-------------------0--|--------------------------|
--0--------2-------------|---------------3-------------|--------0--------3--------|


                  
--------------------------|---------------------|-------------------|
--0--------0--3--2--0-----|--3-------------3----|--L----------------|
--0----2-2----------------|--4-------------4----|--L----------------|
-----------4-----------4--|-----------4----4----|--L----------------|
--------------------2-----|----------------2----|--L----------------|
--0--------2--------------|---------------------|-------------------|


Login to Edit
Edit
YouTube
Video
View Sheet Music
Sheet
Music
Print
Speed:
Play Intro (login for the full song)
Play
Intro
Sustain:
Download midi (intro) ...

 Rate:
5 star
4 star
3 star
2 star
1 star
 

Comments (0)
 

No comments yet...

Comment on this tab   -   Unhelpful comments are exterminated.
  Your Guest Name:
      [Member Login]
  Comments:
 

Don't understand the tab?
See "How to Read Guitar Tabs".
Supported tags:
<i>italics</i>
<b>bold</b>
<u>underline</u>
<tab>tab lines</tab>
  Are you a spam robot?

If not, solve the equation:




[391 TabNabbers online]
©2020 TabNabber.com - Musician Supported Contact us Advertising Merchandise Privacy Policy Terms of Use facebook Twitter