TabNabber Tabs   Musician Supported
  Tabs de Piano
Espa˝ol English
Franšais Русский
Artista: # A B C D E F G H I J K L M N O P Q R S T U V W X Y Z
guitar

Guitar Tab, Acordes



(0 from 0 votes)
3,279 Vistas, ´┐Żltima Revisi´┐Żn 4 years ago
by: Anonymous
guest
[Guest]
e|------------------------------------8-----------8------------|
B|-------8------------8-----------10b---10r-8--------10-8------|
G|---7b8---8b7-5--7b8---8b7-5~----------------10----------10---|
D|-------------------------------------------------------------|
A|-------------------------------------------------------------|
E|-------------------------------------------------------------|

e|---------------5---------------------------------------------|
B|-------8---------8-7-5---------------------------------------|
G|---7b8---8b7-5---------5--5/9 9--9/7-5----5/9 9/7 5----------|
D|---------------------------------------7------------7--------|
A|-------------------------------------------------------------|
E|-------------------------------------------------------------|

e|-----8-5--------------------------8-------------8--10b-------|
B|---------8------------8-10-----10---10-----8/10--------10~---|
G|-----------8p7-5--7/9------7~----------10--------------------|
D|-------------------------------------------------------------|
A|-------------------------------------------------------------|
E|-------------------------------------------------------------|


Login to Edit
Edit
YouTube
Video
View Sheet Music
Sheet
Music
Print
Speed:
Play Intro (login for the full song)
Play
Intro
Sustain:
Download midi (intro) ...

 Rate:
5 star
4 star
3 star
2 star
1 star
 

Comments (0)
 

No comments yet...

Comment on this tab   -   Unhelpful comments are exterminated.
  Your Guest Name:
      [Member Login]
  Comments:
 

Don't understand the tab?
See "How to Read Guitar Tabs".
Supported tags:
<i>italics</i>
<b>bold</b>
<u>underline</u>
<tab>tab lines</tab>
  Are you a spam robot?

If not, solve the equation:




[279 TabNabbers online]
©2020 TabNabber.com - Musician Supported Contact us Advertising Merchandise Privacy Policy Terms of Use facebook Twitter