TabNabber Tabs   Musician Supported
  Tabs de Piano
Espa˝ol English
Franšais Русский
Artista: # A B C D E F G H I J K L M N O P Q R S T U V W X Y Z
guitar

Guitar Tab, Acordes



(0 from 0 votes)
3,672 Vistas, ´┐Żltima Revisi´┐Żn 4 years ago
by: Anonymous
guest
[Guest]
e--3--2--3--2-|-3-----3---------|--------3--2--3--2-|-3-----3--------|
B--------3----|----3-----1--(1)-|----0---------3----|----3-----1-----|
G-----0-----0-|----0------------|-0---------0-----0-|----0-----------|
D--2----------|-----------------|--------2----------|----------------|
A-------------|-3---------------|-------------------|-3--------------|
E-------------|-----------------|-------------------|----------------|


e-----------3--2--3-|------2--3--------3-|----------------|----------|
B--(1)---0--------3-|---3-----3------3---|-----3--------1-|--3--0----|
G------0-------0----|------0-------0-----|---0-----3^4----|--0-----2-|
D-----------2-------|-2------------------|----------------|--0-------|
A-------------------|------------3-------|-3--------------|----------|
E-------------------|--------------------|---------3------|----------|

e----------------|--------------|--------------|--------------|
B----------------|---------0----|----0^1--3----|----1--0------|
G-----0-----0----|----0^2-------|-0--0---------|-0--------2---|
D--0-----4-------|-2----------2-|----2-------0-|------------0-|
A--------------2-|---------3----|--------------|--------------|
E-----------0----|--------------|---------3----|--------------|

e-----3--2--3-|------2--3--------3-|----------------|-----7--5----5-|
B-----------3-|---3-----3------3---|-----3--------1-|--3----------3-|
G--------0----|------0-------0-----|---0-----3^4----|--0------------|
D--4--2-------|-2------------------|----------------|--0-----0--0---|
A-------------|------------3-------|-3--------------|---------------|
E-------------|--------------------|---------3------|---------------|


e--7--5--3--2--3----|--------------|---------------|-----------------|
B-------------------|---------0----|----0--1--3----|---1--0----------|
G-------------------|-0--0^2--0----|-0--0----------|-0-------2-----2-|
D-----------------2-|------------2-|----2--------0-|---------0--0----|
A-------------------|---------3----|---------------|-----------------|
E--------------0----|--------------|----------3----|-----------------|


Login to Edit
Edit
YouTube
Video
View Sheet Music
Sheet
Music
Print
Speed:
Play Intro (login for the full song)
Play
Intro
Sustain:
Download midi (intro) ...

 Rate:
5 star
4 star
3 star
2 star
1 star
 

Comments (0)
 

No comments yet...

Comment on this tab   -   Unhelpful comments are exterminated.
  Your Guest Name:
      [Member Login]
  Comments:
 

Don't understand the tab?
See "How to Read Guitar Tabs".
Supported tags:
<i>italics</i>
<b>bold</b>
<u>underline</u>
<tab>tab lines</tab>
  Are you a spam robot?

If not, solve the equation:




[130 TabNabbers online]
©2020 TabNabber.com - Musician Supported Contact us Advertising Merchandise Privacy Policy Terms of Use facebook Twitter