TabNabber Tabs   Musician Supported
  Tabs de Piano
Espa˝ol English
Franšais Русский
Artista: # A B C D E F G H I J K L M N O P Q R S T U V W X Y Z
guitar

Guitar Tab, Acordes



(0 from 0 votes)
3,258 Vistas, ´┐Żltima Revisi´┐Żn 4 years ago
by: Anonymous
guest
[Guest]
פתיחה:
e|-----0---------------------------------|
B|---------------------2---------3-------|
G|-------2---2------4--------------2---2-|
D|---2-----2------3------3----4------4---|
A|-0-----------4------------5------------|
E|---------------------------------------|
e|----------------------------0-----|
B|---0------0-----------------------|
G|-------6-------2--------2-------2-|
D|-----3-------3----------------2---|
A|-5---------------0--2h4---0-------|
E|----------------------------------|
e|----------------------------------------------|
B|------2---------------3----------0-----0------|
G|--4-----4---2------------2---2-------6-----2--|
D|----3-----3----0--2h4------4-------3-----3----|
A|4------------------------------5-------------0|
E|----------------------------------------------|


Login to Edit
Edit
YouTube
Video
View Sheet Music
Sheet
Music
Print
Speed:
Play Intro (login for the full song)
Play
Intro
Sustain:
Download midi (intro) ...

 Rate:
5 star
4 star
3 star
2 star
1 star
 

Comments (0)
 

No comments yet...

Comment on this tab   -   Unhelpful comments are exterminated.
  Your Guest Name:
      [Member Login]
  Comments:
 

Don't understand the tab?
See "How to Read Guitar Tabs".
Supported tags:
<i>italics</i>
<b>bold</b>
<u>underline</u>
<tab>tab lines</tab>
  Are you a spam robot?

If not, solve the equation:




[200 TabNabbers online]
©2020 TabNabber.com - Musician Supported Contact us Advertising Merchandise Privacy Policy Terms of Use facebook Twitter