TabNabber Tabs   Musician Supported
  Tabs de Piano
Espa˝ol English
Franšais Русский
Artista: # A B C D E F G H I J K L M N O P Q R S T U V W X Y Z
guitar

Guitar Tab, Acordes



(0 from 0 votes)
3,420 Vistas, ´┐Żltima Revisi´┐Żn 4 years ago
by: Anonymous
guest
[Guest]
E|--------------------------17--18----------------------------------

G|--------------12------12------------------15----------15----------
D|----------12----------------------13----------13--------------15--
A|--10--------------------------------------------------------------
E|------------------------------------------------------------------



E|------------------------------------------------------------------
B|----------------------------------13------11------13--11----------
G|----------15----------15------15--------------------------14--12--
D|------15----------15------15----------15------15------------------
A|--13----------13--------------------------------------------------
E|------------------------------------------------------------------



E|-----------------------------------------------------------
B|------15----------15------10--11---------------------------
G|----------12----------12----------8--10--------8-----7-----
D|--------------12-------------------------8--------5--------
A|--10----------------------------------------6-----------8--
E|-----------------------------------------------------------



E|------------------------------------------------10--11--10------
B|---------11---------11------11--13----------13------------------
G|-----10---------10------10--------------12------------------12--
D|-------------8----------------------10--------------------------
A|----------------------------------------------------------------
E|--6-------------------------------------------------------------



E|--------------------------17--18----------------------------------
B|------15----------15------------------18----------16------15------
G|--------------12------12------------------15----------15----------
D|----------12----------------------13----------13--------------15--
A|--10--------------------------------------------------------------
E|------------------------------------------------------------------



E|------------------------------------------------------------------
B|----------------------------------13------11------13--11----------
G|----------15----------15------15--------------------------14--12--
D|------15----------15------15----------15------15------------------
A|--13----------13--------------------------------------------------
E|------------------------------------------------------------------



E|-----------------------------------------------------------
B|------15------11--15------10--11---------------------------
G|----------14----------12----------8--10--------8-----7-----
D|-----------------------------------------8--------5--------
A|--10----------------------------------------6-----------8--
E|-----------------------------------------------------------



E|------------------------------------------------10--11--10v--v--v--v--
B|---------11---------11------11--13----------13------------------------
G|-----10---------10------10--------------12----------------------------
D|-------------8----------------------13--------------------------------
A|----------------------------------------------------------------------
E|--6-------------------------------------------------------------------


Login to Edit
Edit
YouTube
Video
View Sheet Music
Sheet
Music
Print
Speed:
Play Intro (login for the full song)
Play
Intro
Sustain:
Download midi (intro) ...

 Rate:
5 star
4 star
3 star
2 star
1 star
 

Comments (0)
 

No comments yet...

Comment on this tab   -   Unhelpful comments are exterminated.
  Your Guest Name:
      [Member Login]
  Comments:
 

Don't understand the tab?
See "How to Read Guitar Tabs".
Supported tags:
<i>italics</i>
<b>bold</b>
<u>underline</u>
<tab>tab lines</tab>
  Are you a spam robot?

If not, solve the equation:




[867 TabNabbers online]
©2020 TabNabber.com - Musician Supported Contact us Advertising Merchandise Privacy Policy Terms of Use facebook Twitter