TabNabber Tabs   Musician Supported
  Tabs de Piano
Espa˝ol English
Franšais Русский
Artista: # A B C D E F G H I J K L M N O P Q R S T U V W X Y Z
guitar

Guitar Tab, Acordes



(0 from 0 votes)
5,065 Vistas, ´┐Żltima Revisi´┐Żn 4 years ago
by: Anonymous
guest
[Guest]
E|--0-----2--3--------2--3--------3--3--]
B|--------------3-----------1--------0--]
G|-----0-----------0-----------0-----0--]
D|-----------------------------------0--]
A|--3-----------------------0--------2--]
E|--------------3--------------------3—-]

E|--------------------------------------3--]
B|--0-----------------------------------0--]
G|-----2--0-----------0--------0-----0--0--]
D|-----------4--2--4-----0--4-----2-----0--]
A|--------------3--------2--------0-----2--]
E|-----------------------3--------------3--]
Intro:  C  G  Am7 G (2x) 

Verse 1

E|-----------------------------------------------0--]
B|-----------------0-----0-----0-----------------1--]
G|--------------------2-----2-----2--0--0-----0--0--]
D|--------------2-----------1--------------4-----2--]
A|-----------2--------------------------------0--0--]
E|--3--2--0-----------------------0-----------------]
Em               Em/D#   Em7           Am7 
  Just smile for me  and let the day begin

 
E|-----------------------------------2--]
B|--------------------1--0-----------4--]
G|--------0--------0--------2--0--2--2--]
D|--2--4-----0--4-----------------0--4--]
A|--3--------2--------0--------------2--]
E|-----------3--------------------------]
C            G              Am7               D B7  
You are the sunshine that lights my heart within 


E|-----------------------------------------0--]
B|-----------0-----0-----0-----------------1--]
G|--------------2-----2-----2--0--0-----0--0--]
D|--------2-----------1--------------4-----2--]
A|-----2--------------------------------0--0--]
E|--0-----------------------0-----------------]
Em    Em/D#               Em7          Am7        
  I'm sure that you're an angel in disguise 


E|-----------------------------------------2--]
B|--------------------1--0-----------3-----3--]
G|--------0--------0--------2--0--2-----2--2--]
D|--2--4-----0--4-----------------0--------0--]
A|--3--------2--------0-----------------------]
E|-----------3--------------------------------]
 C            G          Am7             D 
Come take my hand and together we will ride 


Chorus: 

E|--------------3--------------0-----------------------------------0--]
B|--3--1--0--3--0--0--1--3--3--------------------3--0-----------0-----]
G|--0-----------------------0-----0--0--0--0--2--------------0--------]
D|--------------------------------------2-----0-----------2-----------]
A|--------------------------3-----------0--------------2--------------]
E|--3-----------3-----------------------------------0-----------------]
G                             C                  Am7   D     Em 
On the wings of love up and above the clouds the only way to fly 


E|--------------------------2--]
B|--0--0--------------3-----3--]
G|--------2--2--0--2-----2--2--]
D|-----------------0-----------]
A|-----0-----------------------]
E|-----------------------------]
   Am7              D 
Is on the wings of love 


E|--------------3--------------0-----------------------------------------]
B|--3--1--0--3--0--0--1--3--3--------------------3--3--0-----0-----------]
G|--0-----------------------0-----0--0--0--0--2-----------2-----------0--]
D|--------------------------------------2-----0--------------------2-----]
A|--------------------------3-----------0-----------------------2--------]
E|--3-----------3-----------------------------------0--------------------]
G                             C           Am7     D      Em
On the wings of love only the two of us together flying high 


E|-----------------------------------------3--]
B|--0-----------------------------------0-----]
G|-----2--2--0--2--------0--0--------0--------]
D|--------------0--0--2-----------0-----------]
A|--0--------------------------2--------------]
E|--------------------------3-----------------]
Am7          D                 G 
Flying high upon the wings of love 


Verse 2  (follow the Chords and Tabs of Verse 1)

You look at me and I begin to melt 

Just like the snow when the ray of sun is felt 

I'm crazy 'bout you baby can't you see 

I'd be so delighted if you will come with me 

(Repeat Chorus) 


Bridge:

E|-----------3--2--3--2--3-----------]
B|--3--3--3-----------------3--------]
G|--0--0--0--------------------------]
D|--------------------------------0--]
A|--3--3--3--3-----------------2-----]
E|--------------------------3--------]
C                    G 
  Yes, you belong to me 


E|--3--2--3--2--3-----]
B|-----------------1--]
G|--------------------]
D|-----------------2--]
A|-----------------0--]
E|--------------------]
                    Am7    
I'm yours exclusively 


E|--3--2--0--------0-----------]
B|-----------3--1--3--3--1--3--]
G|-----------------2-----------]
D|-----------------0-----------]
A|-----------------------------]
E|-----------------------------]
                        C          Am7-D 
Right now we live and breathe each other


E|-----------3--2--3--2--3-----------]
B|--3--3--3-----------------3--------]
G|--0--0--0--------------------------]
D|--------------------------------0--]
A|--3--3--3--3-----------------2-----]
E|--------------------------3--------]
C                   G 
  Inseparable it seems 


E|--3--2--3--2--3--0--2--3-----2--3--7--5--5--3--5--6--]
B|-----------------1--------3--------7-----------7--8--]
G|-----------------0--------0--------7-----------7--8--]
D|-----------------2--------0--------0-----------------]
A|-----------------0--------2--------------------------]
E|--------------------------3--------------------------]
                       Am7            G             D                     D#
We're flowing like a stream running free travelling on the wings of love 
 
(Repeat Chorus and shift the chords one fret higher or shift capo 1 fret higher)
(Follow the same tab but shift capo 1 fret higher) 


Outro (Follow TAB from intro)


Login to Edit
Edit
YouTube
Video
View Sheet Music
Sheet
Music
Print
Speed:
Play Intro (login for the full song)
Play
Intro
Sustain:
Download midi (intro) ...

 Rate:
5 star
4 star
3 star
2 star
1 star
 

Comments (0)
 

No comments yet...

Comment on this tab   -   Unhelpful comments are exterminated.
  Your Guest Name:
      [Member Login]
  Comments:
 

Don't understand the tab?
See "How to Read Guitar Tabs".
Supported tags:
<i>italics</i>
<b>bold</b>
<u>underline</u>
<tab>tab lines</tab>
  Are you a spam robot?

If not, solve the equation:




[412 TabNabbers online]
©2020 TabNabber.com - Musician Supported Contact us Advertising Merchandise Privacy Policy Terms of Use facebook Twitter