TabNabber Tabs   Musician Supported
  Tabs de Piano
Espa˝ol English
Franšais Русский
Artista: # A B C D E F G H I J K L M N O P Q R S T U V W X Y Z
bass

Bass Guitar Tab, Acordes



(4.7 from 3 votes)
7,816 Vistas, ´┐Żltima Revisi´┐Żn 1 year ago
by: Anonymous
guest
[Guest]
After looking all over the internet for this bass tab and not finding any
 good results, I decided to do something I thought I would never have to do:
 Learn a bass line by ear.

And it's an easy one too. This would take you about an hour to learn and play along with the song.
Use this video for reference: http://www.youtube.com/watch?v=tEIRAEM7SNE


     0:12-0:18
G|--------------------------------------------------
D|--------------------------------------------------
A|--------------------------------------------------
E|-2-2----0-2-2----0-2-2---0-2-2---0-2-2---0-2-2----|

     0:18-1:15 (hammer ons are optional)
G|-------------------------------------------------------|
D|-------------------------------------------------------|x2
A|--------------0h1/2-2-0h2-2-0-2-2-0-4-2-0--------------
E|-0-2-2--0-2h4-----------------------------4-[2-2-0]
Repeat that whole line until you get to the 1:15 mark.

     1:16-1:35 #Play these notes fast#
G|--------------------------------------------------------------------------|
D|--2-2-0-2-2-0-2-2-0-#4-2-0------------------------------------------------|
A|---------------------------4#----------------------1----------------------|
E|-----------------------------2-2-0-2-2-0-2-2-0h2h4------------------------|
Repeat  until the 1:35 mark.
[ Tab from: http://www.guitartabs.cc/tabs/m/mars_argo/beauty_is_empty_btab.html ]
     1:36-2:21
G|--------------------------------------------------------------------------|
D|--------------------------------------------------------------------------|
A|--------------------------------------------------------------------------|
E|----2--2---0--2--2---0--2--2---0--2--2---0--2--2---0--2--2----------------|

G|--------------------------------------------------------------------------|
D|--------------------------------------------------------------------------|
A|--------------0h1/2-2-0h2-2-0-2-2-0-4-2-0---------------------------------|
E|-0-2-2--0-2h4-----------------------------4-[2-2-0]REPEAT-2-TIMES---------|
Repeat this whole line (not the one on top of this one) 
until you get to the 2:21 mark.

To be fair, I'm not sure of what to do next. It follows a base line similar to the chorus one 
(1:16-1:35)But I believe that it's mostly improvisation although I could be wrong.
     2:21-3:07
G|-------------------------------------------------------------------------|
D|--2-2-2-2-2-2-0-2-4-2-2-0------------------------------------------------|
A|---------------------------4----------------------1----------------------|
E|-----------------------------2-2-0-2-2-0-2-2-0h2h4-----------------------|

    3:08-3:15
G|--------------------------------------------------------------------------|
D|--------------------------------------------------------------------------|
A|--------------------------------------------------------------------------|
E|----2-2-2b----2-2-2b-----2-2-2b----2-2-2b---------------------------------|

And That's it. I may have made a few mistakes so please comment if I did something wrong.


Login to Edit
Edit
YouTube
Video
View Sheet Music
Sheet
Music
Print
Speed:
Play Intro (login for the full song)
Play
Intro
Sustain:
Download midi (intro) ...

3 Votes
5 star: 67%  (2)
4 star: 33%  (1)
3 star:  (0)
2 star:  (0)
1 star:  (0)
0 star:  (0)
 Rate:
5 star
4 star
3 star
2 star
1 star
 

Comments (0)
 

No comments yet...

Comment on this tab   -   Unhelpful comments are exterminated.
  Your Guest Name:
      [Member Login]
  Comments:
 

Don't understand the tab?
See "How to Read Guitar Tabs".
Supported tags:
<i>italics</i>
<b>bold</b>
<u>underline</u>
<tab>tab lines</tab>
  Are you a spam robot?

If not, solve the equation:




[165 TabNabbers online]
©2020 TabNabber.com - Musician Supported Contact us Advertising Merchandise Privacy Policy Terms of Use facebook Twitter