TabNabber Tabs   Musician Supported
  Tabs de Piano
Espa˝ol English
Franšais Русский
Artista: # A B C D E F G H I J K L M N O P Q R S T U V W X Y Z
guitar

Guitar Tab, Acordes



(0 from 0 votes)
3,445 Vistas, ´┐Żltima Revisi´┐Żn 4 years ago
by: Anonymous
guest
[Guest]
Intro
e-----0-------------------------------0--------------------------2-------------
b-----0---------------2-1-0-------0---0----------2-1-0-------0-----0-----------
g-----1----1--------1-------2-0-1--------------1-------2-------2-----2---2-----
d---2----2--------2-----------------2--------2-------------1-----------1-------
a-------------0-2------------------------0-2-------------2-----------------2---
e-0---------------------------0------------------------------------------------
                                                     

                Verse 
e-------2-------|---------0---------------0---------------2---------------3----
b---0-----0-----|-----0-----0---------1-----1---------3-----3---------3-----3--
g-----2-----2---|-------1-----1---------2-----2-----2---2-----2---------0------
d-1-----------1-|---2-----------2---2-----------2-0-------------0---0----------
a---------------|-----------------0--------------------------------------------
e---------------|-0-----------------------------------------------3------------
                 E               Am              D               G5     

-------------0-----------------2-----------------0---------------0------------
---------1-----1-----------0-----0-----------0-----0---------0-----0----------
-0---------0-----0---0-------2-----2---2-------1-----1---------1-----1--------
---0---2-----------2-----1-----------1-----2-----------2---2-----------2---2--
-----3-----------------2------------------------------------------------------
-----------------------------------------0---------------0---------------0----
     C                 B7                E                            

e-----0---------------0---------------2---------------3---------------0--------
b-0-----0---------1-----1---------3-----3---------3-----3---------1-----1------
g---1-----1---------2-----2-----2---2-----2---------0-----0---------0-----0----
d-----------2---2-----------2-0-------------0---0-----------0---2-----------2--
a-------------0-----------------------------------------------3----------------
e---------------------------------------------3--------------------------------
             Am              D               G5              C      

                                                          Chorus
e-----------2-------------------0-----------------0-------|---------0----------
b-------0-----0-------------0-----0-----------0-----0-----|-----0-----0--------
g-0-------2-----2---2-----1---1-----1---1-------1-----1---|-------1-----1------
d-----1-----------1-----2-------------2-----2-----------2-|---2-----------2----
a---2-----------------------------------------------------|-----------------0--
e---------------------0-------------------0---------------|-0------------------
   B7                E                                          

e-------0---------------2---------------3---------------0-----------------2----
b---1-----1---------3-----3---------3-----3---------1-----1-----------0-----0--
g-----2-----2-----2---2-----2---------0-----0---------0-----0---0-------2------
d-2-----------2-0-------------0---0-----------0---2-----------2-----1----------
a-----------------------------------------------3-----------------2------------
e-------------------------------3----------------------------------------------
 Am            D               G5              C                 B7 

e---------------0---------------0-------|--------------------------------------
b-----------0-----0---------------0-----|--------------------------------------
g-2---2-------1-----1-------0-------1---|--------------------------------------
d---1-----2-----------2---2---1-------2-|--------------------------------------
a---------------------------------------|--------------------------------------
e-------0---------------0---------------|--------------------------------------
       E                                 back to verse.  at the end of verse, 

e------------------------------------|---------0-----------------------2-------
b------------------------------------|-----0-----0---------0-------------0-----
g------------------------------------|-------1-----1---0-----------2-------2---
d------------------------------------|---2-----------2---2---2---1---1---------
a------------------------------------|-2-----------------------2---------------
e------------------------------------|-----------------------------------------
 play the last two E chords like...   E               Em      B7              

e---|---------0---------------0---------------2---------------3----------------
b---|-----0-----0---------1-----1---------3-----3---------3-----3---------1----
g---|-------1-----1---------2-----2-----2---2-----2---------0-----0---------0--
d-1-|---2-----------2---2-----------2-0-------------0---0-----------0---2------
a---|-----------------0-----------------------------------------------3--------
e---|-0-----------------------------------------------3------------------------
     E               Am              D               G5              C        

e-0-----------------2-----------------0---------------0---------------0--------
b---1-----------0-----0-----------0-----0---------0-----0---------0-----0------
g-----0---0-------2-----2---2-------1-----1---------1-----1---------1-----1----
d-------2-----1-----------1-----2-----------2---2-----------2---2-----------2--
a-----------2------------------------------------------------------------------
e-----------------------------0---------------0---------------0----------------
           B7                E                                                

e---------0---------------2---------------3---------------0-----------------2--
b-----1-----1---------3-----3---------3-----3---------1-----1-----------0------
g-------2-----2-----2---2-----2---------0-----0---------0-----0---0-------2----
d---2-----------2-0-------------0---0-----------0---2-----------2-----1--------
a-0-----------------------------------------------3-----------------2----------
e---------------------------------3--------------------------------------------
 Am              D               G5              C                 B7   

e-----------------0---------------0---------------0---------------0------------
b-0-----------0-----0---------0-----0---------1-----1---------1-----1----------
g---2---2-------1-----1---------1-----1---------2-----2---------2-----2--------
d-----1-----2-----------2---2-----------2---2-----------2---2-----------2---2--
a-----------------------------------------0------------------------------------
e---------0---------------0-------------------------------3---------------2----
         E                               Am              Am/G            Am/F#

e-----0---------------0---------------0---------------0---------------0--------
b-1-----1---------0-----0---------0-----0---------0-----0---------------0------
g---2-----2---------------2---------2-----2---------2-----2-------1-------1----
d-----------2---2---2-------2---2-----------2---2-----------2---2---2-------2--
a------------------------------------------------------------------------------
e-------------1---------------0---------------0---------------0----------------
             Fmaj11          Esus4                           E 

e------------------------------------------------------------------------------
b------------------------------------------------------------------------------
g------------------------------------------------------------------------------
d------------------------------------------------------------------------------
a------------------------------------------------------------------------------
e-0----------------------------------------------------------------------------


Login to Edit
Edit
YouTube
Video
View Sheet Music
Sheet
Music
Print
Speed:
Play Intro (login for the full song)
Play
Intro
Sustain:
Download midi (intro) ...

 Rate:
5 star
4 star
3 star
2 star
1 star
 

Comments (0)
 

No comments yet...

Comment on this tab   -   Unhelpful comments are exterminated.
  Your Guest Name:
      [Member Login]
  Comments:
 

Don't understand the tab?
See "How to Read Guitar Tabs".
Supported tags:
<i>italics</i>
<b>bold</b>
<u>underline</u>
<tab>tab lines</tab>
  Are you a spam robot?

If not, solve the equation:




[744 TabNabbers online]
©2020 TabNabber.com - Musician Supported Contact us Advertising Merchandise Privacy Policy Terms of Use facebook Twitter