TabNabber Tabs   Musician Supported
  Tabs de Piano
Espa˝ol English
Franšais Русский
Artista: # A B C D E F G H I J K L M N O P Q R S T U V W X Y Z
guitar

Guitar Tab, Acordes



(0 from 0 votes)
3,521 Vistas, ´┐Żltima Revisi´┐Żn 4 years ago
by: benjimac
guest

Tabber
[Tabber]
e|---------------------------------------------------------------|
B|---------------------------------------------------------------|
G|--7--9--9>(11)vvvvvv--9>(11)>9>7---7--9--9--7-------7vvvvvvv---|
D|---------------------------------9-------------9--9------------|
A|---------------------------------------------------------------|
E|---------------------------------------------------------------|

e|-------------------------------------------10----------------------------------|
B|--------10------10--12--12>(15)>12>10--12--------------------------------------|
G|---/11------11---------------------------------------7--9--9>(10)>9>7----------|
D|-----------------------------------------------------------------------9vvvvvv-|
A|-------------------------------------------------------------------------------|
E|-------------------------------------------------------------------------------|

e|---------------------------------------------------------------------------|
B|----10>7-------7-----------------------------------------------------------|
G|-----------9-------9---7-------------------------------7-------------------|
D|--------------------------9vvvvvvvvvv--------7---7--9-----9>7---9vvvvvv----|
A|-----------------------------------------/9--------------------------------|
E|---------------------------------------------------------------------------|

e|--9--9>(10)----7-------7---------------------------|
B|-------------------10-----10>(12)vvv----10>7-------|
G|-----------------------------------------------9---|
D|---------------------------------------------------|
A|---------------------------------------------------|
E|---------------------------------------------------|

e|-------7--------------------------------------------------------|
B|--7--7---10>7---------------------------------------------------|
G|--------------9>(11)>9>7---9-7----------------------------------|
D|-------------------------9-----9-7------------------------------|
A|-----------------------------------9-8-7-5---5vvvvvvvvvvvvvv----|
E|-------------------------------------------7--------------------|

e|--------------------------7-------------------------------------------------|
B|------------------------7---10>7--------------------------------------------|
G|--7-7-7vvvvvvv---9>(11)----------9>(11)>9>7---9-7---------------------------|
D|--------------------------------------------9-----9>7-----------------------|
A|------------------------------------------------------9\7-5-7>5---5--7-7/9--|
E|----------------------------------------------------------------7-----------|

e|----------------------------7----------------------------7------------------|
B|--------------------------7---10--------7--------------7---10>7-------------|
G|-------------7---7-9>(11)--------9>(11)---7--9--9>(11)----------9>(11)>9>7--|
D|--7-7-7--9>7---9------------------------------------------------------------|
A|----------------------------------------------------------------------------|
E|----------------------------------------------------------------------------|

e|-----------------------------------------------------------------------------|
B|---------------------------7--------------7-7-7------------------7-7-7-------|
G|----9-7--------------------7--------------7-7-7------------------7-7-7-------|
D|--9-----9-7----------------7--9vvvvvvv----7-7-7--"9"vvvvvvvvvv---7-7-7--9vvv-|
A|------------9-8-7-5---5>0----------------------------------------------------|
E|--------------------7--------------------------------------------------------|

e|---------------------------------------------7------------------------|
B|--7---------------------------------------------10>7--10>(12)====>10--|
G|--7----9>(11)>9>7-----7--9--9>(11)vvvvvvvv----------------------------|
D|-----7-------------9--------------------------------------------------|
A|----------------------------------------------------------------------|
E|----------------------------------------------------------------------|

e|----------7-------------------------------------------------------|
B|--------7---10>7--------------------------------------------------|
G|-9>(11)----------9>(11)>9>7-9>7---7---------------------------7---|
D|--------------------------------9---9>7-9>7---7------------9--7---|
A|--------------------------------------------9---9-8-7-------------|
E|------------------------------------------------------10-7--------|

e|-----------------------------------------------------------------------|
B|----------7-----7>(8)>7--------------------------7-----------------7---|
G|--------7-7-----7>(8)>7-----------------7>9>7----7-----------------7---|
D|--9-7-9---7-----7>(8)>7-7vvvvvv-7>9------------9---9>7-----7-9>7>9-----|
A|--------------------------------------------------------9--------------|
E|-----------------------------------------------------------------------|

e|------------------------------------7-----17-17-17>(19)vvv--17-19-21-21>(22)vv-|
B|--------7---7---7--7------7---7--7--7------------------------------------------|
G|--9>7---7---7---7--7----7-7---7--7--7------------------------------------------|
D|------9-----7-----------------------7------------------------------------------|
A|-------------------------------------------------------------------------------|
E|-------------------------------------------------------------------------------|

e|--21>(22)vvv-21-21>(22)>21--21>(22)-21>(22)-21>(22)>21--19>21>19-19-19\---|
B|--------------------------------------------------------------------------|
G|--------------------------------------------------------------------------|
D|--------------------------------------------------------------------------|
A|--------------------------------------------------------------------------|
E|--------------------------------------------------------------------------|

e|------------------------------------------------------------------------------|
B|--17-17-17--17>(19)>17>15----17-17-17vvvvvv---15--17-17>(18)>17>15vvv---------|
G|--------------------------16-----------------------------------------16-16-16-|
D|------------------------------------------------------------------------------|
A|------------------------------------------------------------------------------|
E|------------------------------------------------------------------------------|

e|----------------------------10---------10----12-12>(13)-10-12-------12--|
B|--------------------10>(12)----10>(12)----10------------------12-12-----|
G|--14-16vvv--------------------------------------------------------------|
D|-----------14-12--------------------------------------------------------|
A|-----------------14-----------------------------------------------------|
E|------------------------------------------------------------------------|

e|-------------------------------------------------------------|
B|-12>(15)>12--12-10---------------------------------------7---|
G|-------------------9>(11)>9>0--9>7---7-9>7---------------7---|
D|-----------------------------------9-------9-7---------------|
A|-----------------------------------------------9-8-7-5-------|
E|-------------------------------------------------------------|

e|-----------------------------------7--7--7--7---7---7---7--7-7--7---7--7--|
B|---7--7--7--7--7-----7---7---7--7--7--7--7--7---7---7---7--7-7--7---7--7--|
G|---7--7--7--7--7-----7---7---7--7-----------------------------------------|
D|-------------------9---9---9----------------------------------------------|
A|--------------------------------------------------------------------------|
E|--------------------------------------------------------------------------|

e|---7-----------------------------------------------|
B|------10-------------------------------------------|
G|----------9>(11)-9--7------------------------------|
D|----------------------9-9-9-7----7-7>9-9>7-9vvvvv--|
A|---------------------------------------------------|
E|---------------------------------------------------|


** NOTE**

When changing from an A to a G/B to a C in the


Login to Edit
Edit
YouTube
Video
View Sheet Music
Sheet
Music
Print
Speed:
Play Intro (login for the full song)
Play
Intro
Sustain:
Download midi (intro) ...

 Rate:
5 star
4 star
3 star
2 star
1 star
 

Comments (0)
 

No comments yet...

Comment on this tab   -   Unhelpful comments are exterminated.
  Your Guest Name:
      [Member Login]
  Comments:
 

Don't understand the tab?
See "How to Read Guitar Tabs".
Supported tags:
<i>italics</i>
<b>bold</b>
<u>underline</u>
<tab>tab lines</tab>
  Are you a spam robot?

If not, solve the equation:




[729 TabNabbers online]
©2020 TabNabber.com - Musician Supported Contact us Advertising Merchandise Privacy Policy Terms of Use facebook Twitter