TabNabber Tabs   Musician Supported
  Tabs de Piano
Espa˝ol English
Franšais Русский
Artista: # A B C D E F G H I J K L M N O P Q R S T U V W X Y Z
guitar

Guitar Tab, Acordes



(0 from 0 votes)
3,170 Vistas, ´┐Żltima Revisi´┐Żn 3 years ago
by: mike.labombard
guest

New Tabber
[New Recruit]
e|-8-4-----8-4-----8-4-8-4-----8-4-----8-4-----8-4-8-4-----8-4-----
b|-----6-4-----6-4---------6-4-----6-4-----6-4---------6-4-----6-4-
g|-----------------------------------------------------------------
d|-----------------------------------------------------------------
a|-----------------------------------------------------------------
e|-----------------------------------------------------------------

e|-7-4-----7-4-----7-4-7-4-----7-4-----7-4-----7-4-7-4-----7-4-----
b|-----7-4-----7-4---------7-4-----7-4-----7-4---------7-4-----7-4-
g|-----------------------------------------------------------------
d|-----------------------------------------------------------------
a|-----------------------------------------------------------------
e|-----------------------------------------------------------------

                                   h-p-h-p-h-p-h-p
e|-6-4-----6-4-----6-4-----6-4-----4-6-4-6-4-6-4-6-4~--------------
b|-----6-4-----6-4-----6-4-----6-4---------------------------------
g|-----------------------------------------------------------------
d|-----------------------------------------------------------------
a|-----------------------------------------------------------------
e|-----------------------------------------------------------------
guitar 2
e|-20-16-------20-16-------20-16-20-16-------20-16-------20-16-------20-16-20-16-------20-16-------
b|-------18-16-------18-16-------------18-16-------18-16-------18-16-------------18-16-------18-16-
g|-------------------------------------------------------------------------------------------------
d|-------------------------------------------------------------------------------------------------
a|-------------------------------------------------------------------------------------------------
e|-------------------------------------------------------------------------------------------------

e|-19-16-------19-16-------19-16-19-16-------19-16-------19-16-------19-16-19-16-------19-16-------
b|-------19-16-------19-16-------------19-16-------19-16-------19-16-------------19-16-------19-16-
g|-------------------------------------------------------------------------------------------------
d|-------------------------------------------------------------------------------------------------
a|-------------------------------------------------------------------------------------------------
e|-------------------------------------------------------------------------------------------------

e|-18-16-------18-16-------18-16-------18-16-------16-18-16-18-16-18-16-18-16~---------------------
b|-------18-16-------18-16-------18-16-------18-16-------------------------------------------------
g|-------------------------------------------------------------------------------------------------
d|-------------------------------------------------------------------------------------------------
a|-------------------------------------------------------------------------------------------------
e|-------------------------------------------------------------------------------------------------

$ - implies note is played 4 times (w/ triplet feel)
e|------------------14$--22b24--22-17--17b19~~~--17-14---------------------|
b|--------------15$------------------------------------17-15---------------|
g|-----11$--14$----------------------------------------------16-15-14~~----|
d|-12$---------------------------------------------------------------------|
a|-------------------------------------------------------------------------|
e|-------------------------------------------------------------------------|
|                                                                         |
e|-------------------------------------22~~~~~---22-21-19------------------|
b|------------------17$--19$--20$-22$---------------------22-19------------|
g|--------------19$---------------------------------------------21-19~~----|
d|----------19$------------------------------------------------------------|
a|-----21$-----------------------------------------------------------------|
e|-22$---------------------------------------------------------------------|
|-------------------------------------------------------------------------|

e|---------11-15-13-11-10-10h11p10\8~~~~--8h10p8\7~~-----------------------------|
b|-------13-------------------------------------------8h10p8---4h6p4--3h4p3------|
g|-----12--------------------------------------------x--------x------------4-----|
d|---13---------------------------------------------x--------x--------------5~~--|
a|-15----------------------------------------------------------------------------|
e|-------------------------------------------------------------------------------|
|                                                                               |
e|---------11-15-13-11-10-10h11p10\8~~~~-----------------------------------------|
b|-------13-----------------------------10h12p10\8~~-----------------------------|
g|-----12---------------------------------------------8h10p8---5h7p5--4h5p4------|
d|---13----------------------------------------------x--------x------------5-----|
a|-15-----------------------------------------------x--------x--------------5~~--|
e|-------------------------------------------------------------------------------|

Glorious Harmony Riff:
e|-----------------------------------------------------------------------------------------|
b|---------8--8/10------------10----10/12--12b13r12--10h12p10\8----------------------------|
g|--7~------7-----7-7-7----------7-----------------------------------5h7p5\4~~----2h4p2p0--|
d|-----------------------------------------------------------------------------------------|
a|-----------------------------------------------------------------------------------------|
e|-----------------------------------------------------------------------------------------|
|                                                                                         |
e|---------7----8-------------8------8/10--10/12\10---8h10p8\7-----------------------------|
b|--8~------8-----8-8-8----------8-----------------------------------5h7p5\3~~-------------|
g|--------------------------------------------------------------------------------5h7p5\4~-|
d|-----------------------------------------------------------------------------------------|
a|-----------------------------------------------------------------------------------------|
e|-----------------------------------------------------------------------------------------|

e|----------------6~~~~------------------5~~~-----------*------------------------------------*-|
b|-2--2--2--2--4----------1--1--1--1--3-----------------*--4-----------4---------------------*-|
g|---------------------------------------------5h7p5\4--*----4---4---4---4---4~~(vibrato w/--*-|
d|------------------------------------------------------*------4---4-------4~~---whammy bar)-*-|
a|------------------------------------------------------*------------------------------------*-|
e|------------------------------------------------------*------------------------------------*-|
|                                                                                             |
e|----------------18~~~-----------------17~~~--------------------------------------------------|
b|-14-14-14-14-16--------13-13-13-13-15-------10h12p10-----------------------------------------|
g|------------------------------------------------------11b12r11b12r11b12r11b12r11-------------|
d|---------------------------------------------------------------------------------------------|
a|---------------------------------------------------------------------------------------------|
e|---------------------------------------------------------------------------------------------|


Next part:
e|-----------------------------------------------------------------------------|
b|-----------------------------------------------------------------------------|
g|-3/7-8/7-5/3----------5-8-6-5---5-----------------------3-6-4-3---3----------|
d|-x-x-x-x-x/x--------6---------8---6-------------------4---------6---4--------|
a|-1/5-6/5-3/1----3-6-----------------6-\3~~--------1-4-----------------4-\1~~-|
e|--------------4---------------------------------2----------------------------|
|                                                                             |
e|---------------------8-11-9-8---8-----------------------6-9-7-6---6----------|
b|-------------------9----------11--9-------------------7---------9---7--------|
g|-3/7-8/7-5/3------8-----------------8---------------6-----------------6------|
d|-x-x-x-x-x/x----10--------------------10~~--------8---------------------8~~--|
a|-1/5-6/5-3/1--11--------------------------------9----------------------------|
e|-----------------------------------------------------------------------------|

   E/B      Eb/Bb
e|------------------|
b|------------------|
g|--9~~~-----8~~~---|
d|--9~~~-----8~~~---|
a|--7~~~-----6~~~---|
e|--7~~~-----6~~~---|

Jake's Rhythm during solo:

  Bbsus4
e|-------------------------------------------------|
b|-------------------------------------------------|
g|-8-----8-----8-----8-----8-----8-----8-----8-----|
d|-8-----8-----8-----8-----8-----8-----8-----8-----|
a|-8-----8-----8-----8-----8-----8-----8-----8-----|
e|-6-X-X-6-X-X-6-X-X-6-X-X-6-X-X-6-X-X-6-X-X-6-X-X-|

  Eb
e|-------------------------------------------------|
b|-------------------------------------------------|
g|-7-----7-----7-----7-----7-----7-----7-----7-----|
d|-8-----8-----8-----8-----8-----8-----8-----8-----|
a|-8-----8-----8-----8-----8-----8-----8-----8-----|
e|-6-X-X-6-X-X-6-X-X-6-X-X-6-X-X-6-X-X-6-X-X-6-----|

BB Solo:
e|---------------------------------------------------------|
b|-10b12r10b12(hold)r10p8--10b12r10b12(hold)r10p8h10p8\7~\-|
g|---------------------------------------------------------|
d|---------------------------------------------------------|
a|---------------------------------------------------------|
e|---------------------------------------------------------|

e|---------------------------------------------------------|
b|-------------------------------------------------8-------|
g|---------3-5-pb(5)6r5p3---5---3h5~h7p5p3~/5p0--7---------|
d|-----3-5----------------5---5----------------------------|
a|-3/5-----------------------------------------------------|
e|---------------------------------------------------------|

e|----------------------------------------------------|
b|----------------------------------------------------|
g|-----------------------------------------------8-10-|
d|-8h10p8----8-10-12p10h12p10p8----8-10-12p10h12------|
a|---------12--------------------12-------------------|
e|----------------------------------------------------|

e|-----------6-8-10p8p6--6-8-11p8p6--6-8-10p8p6----6---------------------------------|
b|-6-8-10--------------------------------------10---10p8p6-h10--10-10-10---8p7h8p7~~-|
g|-----------------------------------------------------------------------------------|
d|-----------------------------------------------------------------------------------|
a|-----------------------------------------------------------------------------------|
e|-----------------------------------------------------------------------------------|

Repeat everything frm Glory Riff:

Jake's Solo:

e|--------------------------------------------------20-----|
b|---------------------18---------18----------18b20~-------|
g|------------15-17b19~---17b19~~----17b19r17--------------|
d|------15-17----------------------------------------------|
a|--/17----------------------------------------------------|
e|---------------------------------------------------------

e|-------------------18----20b22~~B23-20b22~r20~~-20*-18*\-|
b|-18b20r18~~~-18/20----20---------------------------------|
g|---------------------------------------------------------|
d|---------------------------------------------------------|
a|---------------------------------------------------------|
e|---------------------------------------------------------|

e|\15-15-17-17-18-18-17-15---------------------------------|
b|-------------------------18--15-18-15----------18--15----|
g|--------------------------------------17-15-17--------17-|
d|---------------------------------------------------------|
a|---------------------------------------------------------|
e|---------------------------------------------------------|

e|---------------------------------------------------------|
b|---------------------------------------------------------|
g|-15-------17-15------------------------------------------|
d|----17-15-------17-15------------------------------------|
a|----------------------17-15\*13tr15*---------------------|
e|---------------------------------------------------------|

Back to Intro


Ending Jam:

  Bm
e|----------------------------------------------------------|
b|----------------------------------------------------------|
g|-------------------------------------------7--------------|
d|-----9---------7h9-----9------------7h9----9---------7h9--|
a|------------7h9------------------7h9--------------7h9-----|
e|-7-7---7-7-7-------7-7--7-7--7-7--------7-7-7-7-7---------|

e|----------------------------------------------------------|
b|----------------------------------------------------------|
g|----------------------------------------------------------|
d|-----9------------7h9-----9----------7h9------------------|
a|---------------7h9----------------7h9----------9----------|
e|-7-7--7-7--7-7--------7-7---7-7-7----------7-7--7-7--7-7--|

e|-----------------------------------------------------------|
b|-----------------------------------------------------------|
g|----6h7---6h7---6h7---6h7---6h7---6h7---6h7---6h7---6h7----|
d|-6h7---6h7---6h7---6h7---6h7---6h7---6h7---6h7---6h7-------|
a|-----------------------------------------------------------|
e|-----------------------------------------------------------|
|                                                           |
e|-----------------------------------------------------------|
b|-----------------------------------------------------------|
g|-----------------------------------------------------------|
d|----7h9---7h9---7h9---7h9---7h9---7h9---7h9---7h9---7h9----|
a|-7h9---7h9---7h9---7h9---7h9---7h9---7h9---7h9---7h9-------|
e|-----------------------------------------------------------|

Repeat. Jam. Peak.


Login to Edit
Edit
YouTube
Video
View Sheet Music
Sheet
Music
Print
Speed:
Play Intro (login for the full song)
Play
Intro
Sustain:
Download midi (intro) ...

 Rate:
5 star
4 star
3 star
2 star
1 star
 

Comments (0)
 

No comments yet...

Comment on this tab   -   Unhelpful comments are exterminated.
  Your Guest Name:
      [Member Login]
  Comments:
 

Don't understand the tab?
See "How to Read Guitar Tabs".
Supported tags:
<i>italics</i>
<b>bold</b>
<u>underline</u>
<tab>tab lines</tab>
  Are you a spam robot?

If not, solve the equation:




[409 TabNabbers online]
©2020 TabNabber.com - Musician Supported Contact us Advertising Merchandise Privacy Policy Terms of Use facebook Twitter