TabNabber Tabs   Musician Supported
  Tabs de Piano
Espa˝ol English
Franšais Русский
Artista: # A B C D E F G H I J K L M N O P Q R S T U V W X Y Z
guitar

Guitar Tab, Acordes



(5 from 1 votes)
3,472 Vistas, ´┐Żltima Revisi´┐Żn 3 years ago
by: sandrs
guest

New Tabber
[New Recruit]
Em      C     Em        C    G    Am
e|---------------------------------------------|
b|---8---8---5-----8-----8---5---------5--5----|
g|---9---9---5-----9-----9---5---------5--5----|
d|-9-------------------9-----------------------|
a|-7-------3---------------3----5-5------------|
e|---------------0--------------3-3--5---------|


  C       Em    Am          C     D6
e|------------------------------------7----|
b|---5-5-------------5----5-----5----------|
g|---5-5-------------5----5-----5-----7----|
d|---------2-2---------------5-----7-------|
a|-3-------2-2---------------3-----5-------|
e|---------0-0---5-5----5------------------|


Login to Edit
Edit
YouTube
Video
View Sheet Music
Sheet
Music
Print
Speed:
Play Intro (login for the full song)
Play
Intro
Sustain:
Download midi (intro) ...

1 Votes
5 star: 100%  (1)
4 star:  (0)
3 star:  (0)
2 star:  (0)
1 star:  (0)
0 star:  (0)
 Rate:
5 star
4 star
3 star
2 star
1 star
 

Comments (1)
 

BA


Admin
[Admin]

3 years ago
I fixed this for you so it would play in the midi player (blue play buttons), sounds good to me! enjoy!

Reply

Comment on this tab   -   Unhelpful comments are exterminated.
  Your Guest Name:
      [Member Login]
  Comments:
 

Don't understand the tab?
See "How to Read Guitar Tabs".
Supported tags:
<i>italics</i>
<b>bold</b>
<u>underline</u>
<tab>tab lines</tab>
  Are you a spam robot?

If not, solve the equation:




[86 TabNabbers online]
©2020 TabNabber.com - Musician Supported Contact us Advertising Merchandise Privacy Policy Terms of Use facebook Twitter