TabNabber Tabs   Musician Supported
  Tabs de Piano
Espa˝ol English
Franšais Русский
Artista: # A B C D E F G H I J K L M N O P Q R S T U V W X Y Z
electric guitar

Guitar Tab, Acordes



(0 from 0 votes)
2,164 Vistas, ´┐Żltima Revisi´┐Żn 3 years ago
by: Anonymous
guest
[Guest]
e|------------------------------------------------------------|
b|------------------------------------------------------------|
g|-----------------7----6--------6---7-7-7-6---7-7-7---9-9-9--|
d|--7----2--x-x-x--7----6-x-x-x--x---x-x-x-x---x-x-x---x-x-x--| 
a|--7----2--x-x-x--5----4-x-x-x--4-\-5-5-5-4-\-5-5-5-\-7-7-7--|
e|--5----0--x-x-x---------x-x-x-------------------------------|

e|------------------------------------------------------------|
b|------------------------------------------------------------|
g|-----------------7----6--------6---7-7-7-6---7-7-7---9-9-9--|
d|--7----2--x-x-x--7----6-x-x-x--x---x-x-x-x---x-x-x---x-x-x--| 
a|--7----2--x-x-x--5----4-x-x-x--4-\-5-5-5-4-\-5-5-5-\-7-7-7--|
e|--5----0--x-x-x---------x-x-x-------------------------------|


e|-------------------------------------------------------|
b|-------------------------------------------------------|
g|-----------------------7--7--7--7--7---9--9--9--9--9---|
d|--7--7--7--7--7--7--7--7--7--7--7--7---9--9--9--9--9---|
a|--7--7--7--7--7--7--7--5--5--5--5--5---7--7--7--7--7---|
e|--5--5--5--5--5--5--5----------------------------------|


e|-------------------------------------------------------|
b|-------------------------------------------------------|
g|-----------------------7--7--7--7--7---9--9--9--9--9---|
d|--7--7--7--7--7--7--7--7--7--7--7--7---9--9--9--9--9---|
a|--7--7--7--7--7--7--7--5--5--5--5--5---7--7--7--7--7---|
e|--5--5--5--5--5--5--5----------------------------------|


e|--------------------------------------------------------|
b|--------------------------------------------------------|
g|--6----7-\-9-7-6----7-\-9-7-6-7-6-7---------------------|
d|----7------------7-------------------7-9-9-\-11-9-7-9---|
a|--------------------------------------------------------|
e|--------------------------------------------------------|

e|---------------------------------------------------------|
b|---------------------------------------------------------|
g|--6----7-\-9-7-6----7-\-9-7-6-7-6-7----------------------|
d|----7------------7-------------------7-9-9-\-11-9-7-9-7--|
a|---------------------------------------------------------|
e|---------------------------------------------------------|


Login to Edit
Edit
YouTube
Video
View Sheet Music
Sheet
Music
Print
Speed:
Play Intro (login for the full song)
Play
Intro
Sustain:
Download midi (intro) ...

 Rate:
5 star
4 star
3 star
2 star
1 star
 

Comments (0)
 

No comments yet...

Comment on this tab   -   Unhelpful comments are exterminated.
  Your Guest Name:
      [Member Login]
  Comments:
 

Don't understand the tab?
See "How to Read Guitar Tabs".
Supported tags:
<i>italics</i>
<b>bold</b>
<u>underline</u>
<tab>tab lines</tab>
  Are you a spam robot?

If not, solve the equation:




[345 TabNabbers online]
©2020 TabNabber.com - Musician Supported Contact us Advertising Merchandise Privacy Policy Terms of Use facebook Twitter