TabNabber Tabs   Musician Supported
  Tabs de Piano
Espa˝ol English
Franšais Русский
Artista: # A B C D E F G H I J K L M N O P Q R S T U V W X Y Z
guitar

Guitar Tab, Acordes



(0 from 0 votes)
2,892 Vistas, ´┐Żltima Revisi´┐Żn 3 years ago
by: Anonymous
guest
[Guest]
e|--------------------------------------------------------------------------------|
B|-5-------5-------5-------5-----5-5-------5-------5-------5-------5-------5------|
G|---------------------------------5---------------5---------------4--------------|
D|---------------------------------5---------------7---------------5--------------|
A|---------------------------------3----------------------------------------------|
E|-------------------------------------------------5---------------0--------------|
                                                                                 
e|--------------------------------------------------------------------------------|
B|-5-------5-------5-------5-------5-------5-------5-------5-------5-------5------|
G|-7---------------5-------------------------------4-------4-------7--------------|
D|-9---------------5-------4-5-4-4-4-4-4-5-4-------5---------------9--------------|
A|-----------------3-------------------------7-7----------------------------------|
E|-7-------------------------------5-------5-------0---------------7--------------|
                                                                                 
e|---------------------------------------------------------------------3----------|
B|-5-------5-------5-------5-------5-------5-------5-------5-------5-------7---7--|
G|-5---5-7--------------------4------------4-------7---------------5--------------|
D|-5---5-----------7---7-7-7----7--5---------------9---------------5--------------|
A|-3---3-----------------------------------------------------------3---3----------|
E|-----------------5-------5-------0---------------7------------------------------|
                                                                               
e|---------------------------------------------------------3------*15--3---5---7--|
B|-7-7-7-8-7p5-5---5-------5-------5-------5---5---8-------5------*12--5---7---8--|
G|-----------------4-------4-------7-----------4---9------------------------------|
D|-----------------5---------------9----------------------------------------------|
A|--------------------------------------------------------------------------------|
E|-5-------5-------0---------------7---------------0-------------------0----------|
                                                                              
e|-----------------------------3---3----------------------------------------------|
B|-7-------7-------7-------8-7-5---5-------5-------5---------------5-------5------|
G|-7-------7-------7-------5-7---------5-5-5p4-4---------4-4-5-4-5-4--------------|
D|-------------------------4---------------------------------------5--------------|
A|--------------------------------------------------------------------------------|
E|-7-------------------------------5-------5-------5-------5-------0-------0------|
                                                                                
e|---------------------5-7-5---5---5—--5-7-5-3-3----------------------------------|
B|-5-------5---5---5---7-8-7---7---7—--7-8-7-5-5---5-------5-------5-------5------|
G|-7-----------4---5-------------------------------4-------4-------7-------7------|
D|-9---------------5-------------------------------5---------------9--------------|
A|-----------------3---3----------------------------------------------------------|
E|-7-------------------------------5-------5-------0---------------7--------------|
                                                                                 
e|---------------------------------------------------------------------5-7-5---5--|
B|-5---5---7---8---5-------5-------5-------5-------5-------5-------5---7-8-7---7--|
G|-5---5---7---9-------------4-------------4-------7-------7-------5--------------|
D|-5---------------7---7-7-7---7---5---------------9---------------5--------------|
A|-3---3-----------------------------------------------------------3---3----------|
E|-----------------5-------5-------0---------------7------------------------------|
                                                                                 
e|-5---5-7-5—3-3-------------------------------------------------------3---5---7--|
B|-7---7-8—7-5-5---5-------5-------5-------5---5---8-------8-------8---5---7---8--|
G|-----------------4-------4-------7-------7---4---9-------9-------9--------------|
D|-----------------5---------------9----------------------------------------------|
A|--------------------------------------------------------------------------------|
E|-5-------5-------0---------------7---------------0---------------0--------------|
                                                                                 
e|-----------------------------3---3---------------------3-3-5-3-5-3-------3------|
B|-7-------7-------7-------8-7-5---5-------5-------5---------------5-------5------|
G|-7-------7-------7-------5-7---------5-5-5p4-4---------4-4-5-4-5-4-------4------|
D|-4-----------------------4---------------------------------------5-------5------|
A|--------------------------------------------------------------------------------|
E|-7-------------------------------5-------5-------5-------5-------0--------------|

                                                                                 
e|-3-------3-------3---3---5---5-7-7-9-9-7-7-9-7-------------------7-9-9-7-7-9-7--|
B|-5-------5-------5---5---7---7-8-8-10108-8-108-108-------8-------5---5-5-5---510|
G|-7-------7-------5-----------------------------9-9-------9-------7---7-7-7---7-7|
D|-9-------9-------5-----------------------------------------------4--------------|
A|-----------------3---3----------------------------------------------------------|
E|-7-------7-----------------------5-------5-------0-------0-------7-------7------|
                                                                 
e|-----5-7-5---5---5---5-7-5—3-3---3-------3-------3-------3------|
B|-5---7-8-7---7---7---7-8—7-5-5---5-------5-------5-------5------|
G|-5-------------------------------4-------4-------7-------7------|
D|-5-------------------------------5-------5-------9-------9------|
A|-3---3---------------------------7-------7----------------------|
E|-----------------5-------5-------0-------0-------7-------7------|
                                                                 
e|----------------------------------------------------------------|
B|-----7-8-7---7---7-7-7-8-7-p5-5------------------5--------------|
G|-------------------------------------------------7--------------|
D|-------------------------------------------------4--------------|
A|-3--------------------------------------------------------------|
E|-----------------5-------5-------0---------------7-------7------|
                                                                 
e|--------------------------------------------7------------*15----|
B|-----7-8-7---7----------------------------5--------------*12----|
G|----------------------------------------4-----------------------|
D|--------------------------------------5-------------------------|
A|-3----------------------------------7---------------------------|
E|-----------------5---------------0---------------------------*0-|


Login to Edit
Edit
YouTube
Video
View Sheet Music
Sheet
Music
Print
Speed:
Play Intro (login for the full song)
Play
Intro
Sustain:
Download midi (intro) ...

 Rate:
5 star
4 star
3 star
2 star
1 star
 

Comments (0)
 

No comments yet...

Comment on this tab   -   Unhelpful comments are exterminated.
  Your Guest Name:
      [Member Login]
  Comments:
 

Don't understand the tab?
See "How to Read Guitar Tabs".
Supported tags:
<i>italics</i>
<b>bold</b>
<u>underline</u>
<tab>tab lines</tab>
  Are you a spam robot?

If not, solve the equation:




[329 TabNabbers online]
©2020 TabNabber.com - Musician Supported Contact us Advertising Merchandise Privacy Policy Terms of Use facebook Twitter