TabNabber Tabs   Musician Supported
  Tabs de Piano
Espa˝ol English
Franšais Русский
Artista: # A B C D E F G H I J K L M N O P Q R S T U V W X Y Z
guitar

Guitar Tab, Acordes



(0 from 0 votes)
2,619 Vistas, ´┐Żltima Revisi´┐Żn 3 years ago
by: Anonymous
guest
[Guest]
E|86-------------------8--2---8-4--20-6--4--22----
B|8--2-----0---------6--2----68-----6-42-----8----
G|66-8--24--8--2----4--82-----8-------8---6-6--48-
D|04-------8-----0---4-----------8-2-----6--------
A|---8-----08-24-----4--8-----4-2--28----------0--
E|---82-4---0-24-----8-2-----8--22----2---------8-
     
E|0--------86-------2--2--------42----2---------4-
B|----0-------------6--82-42--4--4--------0-0---4-
G|8---2----8--2--------80-----------8--6-6---4--2-
D|---46-----0----28--8--------------------4-6--60-
A|-2-8---6-6---0----04-----------4--0----0--------
E|62-26-0--0---------4--6-----0--2----86-48-------
     
E|2--------6---8----------------86--6-----8-88----
B|---06-2--------------2------------2-4--8--8-----
G|82--0--8-------8--------0---6----0--2------2----
D|---44-------60----0---8--4-6---4--------6-4---6-
A|64----0---6----4--46--4--------------------2----
E|-------2--6-2---0--0-2--8--------8---4-6---6-0--
     
E|----6-4--4--2--08--------6-0---4-----------6----
B|0---0-06----2--82----2------8--2-0--6--24----2--
G|---2---6-8-----------8------2--2----0--------2--
D|----------------2----0--28----00-----6----------
A|6---6----------84--4-----0-8--6---0-2---0-------
E|4--48--8-84-00-----4-4-----82-------0-----4-----
E|20-----------0--------6-----0-------4--8--------
B|0--80-----0--2--4-8--0--0-----4---8-4-----4-----
G|-2----0-----4---------6-42-0------6-------------
D|-6--------4-------------------42--6----------4--
A|------0--0-----04--4-------60-----8-----8-2--04-
E|-------8-----2-0---------8-----2-2-----8--------
E|-8----------0---4----------6------6-------------
B|---2--------46----6-----60-0-----6-----8--------
G|0---0-------46-------0--------0-----0-----4--46-
D|0---------------8--------------2-6--82-4--------
A|-8----40--2----2---2-----2-------00--4--------6-
E|2---6--0-----------8-----8----------------62----
E|---6--04-0---4-------------------02--0-----4----
B|86----------------62-6-----0---8--6--0----28-2--
G|---6--8--6------4--6--------------6-0--8-----8--
D|-2-----------8-8-----------8--0--8--2--06--0----
A|---8------8--0-----------------4----26-46-4-----
E|8-----2---8----08--6-8---4-----4--------6-24-26-
E|----4-00--------4----8------------------6-0---2-
B|-4--8----62--0----2--2---------------8----6--0--
G|---------0---0-4------6-48-----4-2---6----6-----
D|---------68-2--8--82--2-8---4--2--0-------------
A|----0-------------4--------0--8---6-------4--6--
E|-0-----2--4-----------------8-----4-06----8-----
E|-0----8------0-------4-----6-----6--------------
B|42--------------4--6----26-6--6---4-6--86--0----
G|-2----0------------2-----0----------6---8-------
D|------------6---6--8-----2-----------------0-8--
A|-0-08-0---0-08----------66-4--2------2-----4--2-
E|-0--0-----6--2----0---2--------8----2--------86-
E|6-----24-------0--48-04--4--------------2-46----
B|---66-8--------86-----------------4-4---6--2----
G|-6--2-8---4-------------4---------8-----4-------
D|---0--4--6---6-6-----20----------------0--66--2-
A|---2---0-------44-------8--6-----4------4----68-
E|-------4-------------------8--80-8--------0-----
E|-4-4--4---------0-------6-----88----------------
B|8--------------0---------2--------8-80----------
G|6--------68-88--------6-----------------------4-
D|-2-62-2--0--6--4---0-84--2----------4-----------
A|-------4-0--80----2--2---2-------0---------4----
E|60----08----------------4------6----0---8-----8-
E|----8--4--0--4----------------2-----4---8----0--
B|----4-6--------2--08----26----6--4--2---8----0--
G|----4--8-2------4--8-64-6---8--8-8---0-4------0-
D|----------------6--0----------8---2----0-----8--
A|---------0--------2---2----40-----0----0--------
E|-------2--8-84-----8----26-----------8--6-06----
E|22----0-----4---8-0--------66--8-66--0-2---4----
B|----------------8----6------------2-6---0-----4-
G|-8-84--------2--4-----6-68--0--6-62--------0--6-
D|----2-8--06--8-2-----------4------6-----8-----6-
A|6--0---------4-0------------8-------40----4--00-
E|---48--4-66----8--6---------4-48-4--------------
E|8--------------82-------8--08-----8--4-6-----04-
B|-2-24--6-------24----08----84-2---0--6-6---6----
G|------62-----4-----------2-----8----64--0--6-2--
D|----0--------2--8-----------6-68-8--------26----
A|-------------------8-42----8--------6---0-------
E|----6--4-------46-------6-----2------6-6---6----
E|---2------0-------------------08--6--6-8---8-44-
B|02----------4--------8-----------28--6----4--8--
G|0---8--8--0-6--------0---------0--------6-------
D|-0-2---------4-2-----04--0--0-4------6-24-------
A|-8--6--6--2--4-4------4-24-8--86-0-----4---4----
E|---------20----------4------6--0----6--4---8-08-
E|6--2---2--8-8--------------------------4---0-8--
B|----------0--4-6------8-6-----------04-4---6----
G|-------8--0-0--------4---2-----2--2-4---0--4-08-
D|------8-----00-----8-0--04----2-----0-----64----
A|-8----84-------4--------2--6-----8--68-0--------
E|44-80-----0-4--0-----60--4----------24----46-2--
E|----------8----0--82----42----48----------6-----
B|6---------2--4-2------2-4--0-----0---------0--0-
G|-4----00----------0-----0---0-4---4-6-----8-----
D|68-8-----------------8--4-----6-----6---4-----6-
A|---6---2-2--8--4-----2--2---4--8--------2-8-----
E|-4--------2--8--0----------2---0----------------
E|2--28-------46-----4-------4---0--0--------6----
B|02----------2---0--6-2-----8--2---2----4--------
G|---------6--08----2--2---4-8--------2--------6--
D|----6----60-8--4------8-4--------6--2--4-----0--
A|------4------2----8---4----8--4-----6-----8--8--
E|26--------0-----4-----------------4--------0-2--
E|-4----4---------------4--0-------------8--4-----
B|84----66--6--8----0--------8--0--------------06-
G|-6--------8-----4-4---2-----2-2---6-44-88-------
D|4-----------8-----6--2--8-----0--6------------4-
A|----6--6----04--6-------4--6------------8----0--
E|---4-----8---2--------------6-----6--4--2-------
E|04-------0---------8-8--2---0----2--------0-----
B|40-06--------6-----2----62-8------0-2--02-22-4--
G|---8--6------8-2---------8--------8--2-06-------
D|08--4--2--2-8--6--2--8--48-0---6----------------
A|2--46-------------8--40--4----8-----08--------6-
E|4--26--6-6--------------68-4---6-----0--------0-
E|4--28-0--0---------8----8--------------8---8-46-
B|2------------2-4------------6-6--44--6-26----4--
G|8--------64-2--------2--0------8--8-----8-------
D|68--2-68--------0--0--0-----8-8-----4--64-------
A|----------------2-----2--6-0--4--2--0--2---0-4--
E|----6--2-28----4-----46--------4--6-46--4-------
E|-2-------2---0----2--------6--4---6----6--------
B|----------2-----4-0--8---------2--6-6------8----
G|----6-22-----------4-8-----4--0--2-----------28-
D|-2-----4-----------0--------2----------8--------
A|-0--------2-4---8-62--------2-08-06-8---4--0--4-
E|6--4--42--8-40-------6-----8--46-------4--------
E|0--------0---8--------4-6---2-4-----0--08-----0-
B|---4--06-0--86----------------------8--0--8--4--
G|----------------0-------4------0-----8--2-80----
D|-------4-8--4-----2--------8-----------4---8--4-
A|8--8-----22--------8--2--6-40-----2----------68-
E|----0-------------------26-------------------8--
E|-------------4-64--8--0--2-----2-0--0--4--42----
B|---2---2----------68--2--8-------4--------44-8--
G|82--0-80----80-2---2--2-------80----8--02----6--
D|------26-0------------------------8----------84-
A|4--02----0-----8------4-----8-----8----66-4-----
E|-------6--0-----4-----------8--------8----------
E|-2-04-----6--4-----8-------------4------2-------
B|-2-2---0--------6--8--------8--8--0-----0--0-40-
G|-8----4-----86--4-6--8-----------------2-----6--
D|0---6-2---4-----------8-------6------4--8----26-
A|----8--------6-----4-8-----8--------------80----
E|02-60-----6----------6---------8-----------2----
E|2--2--8---4--4--2----0-----8-----00-----0--4-04-
B|6-----8-----4-----80--------------6----4--------
G|80-------06--8-----4-6---------------4-------44-
D|80----2--8------2-6--------------8--0-----60--0-
A|-6--------6--4-----4----64-----------0-------8--
E|---0---0-2--0--8------8-22----2--------0-----02-
E|------0--------------------------4-----2--------
B|----6-----4-----2--0-88--2----------------------
G|4------4-----0-2--------8--4------0-----0-8--86-
D|-8--8-4--6---2-------80-2--------6------8-48----
A|-------0--4--0-66--6-48-46-----------4----------
E|4-----------84--8-------------------------8---8-
E|-2-04----8--20-------22--------4-04-------4-----
B|-8-0-----------------24--6--8-----4----------62-
G|---2-----68--8----6--60-8---4----0---8-6--8-----
D|0-----86-8--6--00----2---6-----0-82-------6--8--
A|------------80-68-------0--0--00----02-2-----8--
E|4-----24--2-2--------06--2-8---------8-8--------
E|---2---0----4--0--28----02-88----4--8-----66-0--
B|8-----------------6------0-8-----------2--42-8--
G|-8-----4-------6--80----6-----8------6--6----2--
D|4--68-2--2---0-----2-----0-----------2--2-6---2-
A|4--------------------8-----0-----2---0----------
E|26-68-6--------0--8------4-2--0--0---------0-0--
E|-------------------------4-02-8--2-----6-----84-
B|------2--8--80-----------4--------------------4-
G|-------2-8--------------6---------6----68-----4-
D|---80-08--------2-4---0-------8---4--8-24-------
A|----8--------8--2-02-----------8----4---0-44-08-
E|------26-----0--2--2-------------48-----4-----4-
E|-2--------4-26-0-----62-----0-0---0-2--6-----8--
B|6---0-----2--0-86--0----0--8--62----------------
G|0------2----62-------8--8--8--0---6--------8-6--
D|---------2--------6---4-----6-----------8-8---4-
A|2--08--------4-----2-82--8----0--28--8----8-----
E|8-----0---4--2-6---4-04--0----2--0--6-----6-----
E|------0--8--6--0-----0--------0---0-------------
B|-0----8------8----8-----8---0----84----------80-
G|---68-------6--8--4-----4--------------6--------
D|----------------2----42--2-----2--0-22--8--4-6--
A|------60--2-6------0-0-----------------8--20--4-
E|---20-4--2--26-----2-----4-4-----4---4-2---4----
E|8--------4--2-----84--0-----2----------08--8-8--
B|----------2--2----46--6--4----60--------------2-
G|0--26-4--62-28-2--8-----------4--------02-------
D|84-----6-20-0--42-0--64----40----86--------0--8-
A|----2-0--------8---------0-68----0---6----4-----
E|-0-22-----2--0--4-2------8-4-----8--------20-4--
E|-6--2----8---4----------------0--6--0-----68-04-
B|-6-62-----4----4---------0-0--6---8--4----4-----
G|----8-----6----48-2--------2------8-------6---2-
D|-6--------2--------4-6------4--4-------2---4-40-
A|----8-----4--4-------40-2--6---8-----4-6---4----
E|------6------8----8--64-4--8--02-----2-8---2--2-
E|-6-4--62----66--2-2---0-66----2--------4---0----
B|4---2-------6--6--------8---------8--------2----
G|-4--8----0--8---4-4--2---------2--------4--8--2-
D|---4-----4-----------0---4----6---6-----2----2--
A|-8-------24-----2----60--------8----------8---2-
E|---46-----0-46-62-8---6-------------04-6--86-2--
E|-------6-----0-2--0---------8--4--6-0---2----0--
B|-6-----2----8--8------6--2--8--4-0---------2----
G|----8--6-----0----4------8-6---------------0----
D|---8---0--8----0--02--0-----0-----6--8-----0----
A|-------6--------------4-2-----0--2---0----8-----
E|----6-------------0-----8---0--8-0------4-4-----
E|----------0-2---------2-4--------0--8--0--------
B|----------2--------0----26--0----------24-26-62-
G|---88-------04--6-------6---8--------2-------6--
D|6---------8----6---8--8--------6-----------4----
A|8---------------2--6--------2--6-8-----0--2-----
E|02----6---2-----6-08-20-----------8-----6-------
E|------------4---------8-------------2---------8-
B|-6-4-----68-46--4--4--0--0--2--6-84----88-------
G|6---2----6--6-----0------4--4--------6--2--6-68-
D|-4-----0-----------2-4---8----4-----------22--2-
A|-6-------22----0---6----8-----04-------02-62--8-
E|4-----4---------------2----4-----0-----8--42-04-
E|0--0-----4--62--6--8-----2-6--86-----2----------
B|-------6--8-0-----44--------6--8-------02-------
G|4--------------64----8------------2-------------
D|46--2--------2-----------2--2-6------6----2--84-
A|---0--60----48-4-----8--2---0----6-----0---0-4--
E|22----26-6--8-----2---6-86-4---------8--6--2-2--
E|8--2------4-----6-62-8--------86-----2-68-46-4--
B|4--4-----------0---------------6-6--0--------0--
G|---68-----------------8-----0--6--4----------4--
D|-4-----8-----6----24--0----02--2-06-8--6-----84-
A|---0-----------------8-----0---4-60-46----84----
E|------66-------2---6-----8-24-----2--8-2--------
E|-6--8--0--------4-----2----2--68-4------0-26----
B|0--------4---------6----6-----------2---6-------
G|-0-------4-----------40--6-2-----4--28-------6--
D|---------40-80--4--------2----------02----04----
A|---8--------4--0--4-----4------2-8--------8-----
E|----6--0-6--22----------------6---0----84-------
E|02-2---------4--8--4--------2-4-----6-----60-0--
B|-------6--0--4-0--6---8----------68--6----------
G|-0--------0--6-4--08-6------8-2--88----2---0-06-
D|66--8-8--------8--------26----------2---4--0-0--
A|2---4-----------0-----0-----------------4-4--00-
E|4-----0--0---------------4----------86-----8-4--
E|2--00----0---8----------6-----2--26-6---8-------
B|8---2-4--2-----4--------2--------0------------0-
G|00--2--------6--------------4----42-----4-------
D|6--26--------4--2-0-----84-8---0--0--6-----2-0--
A|-6--2-------2--66--------0--0----0---8----------
E|-------6-06-----6-48----------2--04----------4--
E|----2-----------4----22--0-------26--------2-28-
B|-0-6---4-------------4-----22-----0-----4----6--
G|---82--------6--2-88-64----68--2--0--0-------8--
D|----6-62----02-----8-00----04-----6-------8-----
A|----4--6--2----4---------8-----0-2---2-2--------
E|-------8--8--0--0----------------------------2--
E|8-----06-2---0----8--00-8------0--6--------8----
B|24--8-----4----------2---6----4---6--8----6-----
G|-0-6--4---4----4--------24-80-------------4-----
D|---8-----0------0-4---0-------88-----8-------62-
A|82--------0-------6------6-----------------8-02-
E|------6---8-------------8---6-0------4-8--0---2-
E|8--6---------------2-----8--2-02--------2--2----
B|---2------------2--------------2--2-40----02--8-
G|-4-2---0--6--6-00----------86--8----6--6-----0--
D|6---2----62--6-2---2-6--4---6----0--------------
A|----4--------6----0---------8-4--6---2-8-----4--
E|6--------2------------0-0--42-2------8-4------2-
E|------44--8-2-----40----42----0--40-2-----------
B|8--8-----------66-------------42--0--------2-0--
G|-2-84-------2--8--0---2-0--2-----4-----2-----4--
D|----6-8-----62-------4---------------0-46-8---8-
A|8--0--6--6--4------0-2--4-----------------------
E|2--0--2--------4---4--6-04-8-----6--8------8----
E|---02----68-4---6--8-----4-----------8-68----4--
B|----6----------4---4-8------8-48----4-----6--66-
G|-0-------8------8-82--6----24-8--00-------6-----
D|0-----40-84-6---------8-----4-6--6-----8--0--6--
A|----------------4--------4----4---6--2-----6-0--
E|2-----------8-----4-----4--8---6-------6--88-0--
E|----0--2-----6--------6----8-----66-68-06-------
B|-2-2-----0-----0------4----------0---4----40----
G|----2----28-----2----80-0--8--2-----2-----0---2-
D|----2--2-----------2-2---6-2-----0--------0--8--
A|---8------8-8--4--------4--88----2--0---4--4----
E|----0-08--4-----------4-------62-------4--6--4--
E|------82-2---4-------2--8---------8-----6-----2-
B|0-----------------8-----6-----------------8--2--
G|8---4-0-----8--6---------------4--------4--2----
D|------------4--00-0--0--82-------8--0--------64-
A|2---8----04--8--2----8-----20----8-----2--6--6--
E|------26-2------8-----0-8------------0-4---4----
E|----------6----66--4-4-----------------4-----8--
B|---8--8--0------8--4--------6-2--2-----88-------
G|-8-------------6--0--0---------------4--0-0---0-
D|---2---6-2--80-48----84-2------0-8--46-84-4--0--
A|-8-2--------24----4--------4--2---6-4--6---8----
E|---4------------4-8--4---8-8--0--4--6--2-----42-
E|06--4----4---4-------6---8-04-2-----8--00----8--
B|-8--4----------2------------4--------------2-8--
G|-------------2-----2-62----46-22--------0-------
D|---04-0------8--0-4--40-28-4-----8---2----2---4-
A|66-----2-04----46-4--0--------------8-----2-----
E|6-----8--2--20-4-----------2--4------------8----
E|2---4-00--8----40----0---4-6---8-----4-------4--
B|----0--0-------4-----6---8----60-8---4-0-----2--
G|60----4---8-----------6-22-4---4--8--------2-0--
D|82--4-----0--0-----------2-------00-----6----6--
A|---4---0--------6-----8----88--6--4--4--0-2---2-
E|-0-64-6--62-----8--------2-2--8--0---------4--0-
E|------------68-28--------8-----2--6-26-----6----
B|0--6-----44-------2--20-6------6-04----8---4----
G|----8--8----2------4--4----------04--------4----
D|----2--2-46--2--0-88--6-4--6--4--0--------2-----
A|42-----8-62--0-64-----2-20-64--8----2-----8---2-
E|2---4-6--6--04-4-----44-----4-------------2---8-
E|-0-----4-----2--4----40--6-48----22--4--------0-
B|-8-----------------2-2--4-----------4--46-04-0--
G|---02-4------------8-4--6---4--4--2--6----0-----
D|0-----8---2--2----2-----------0--4---8-0-----0--
A|-------------4----4--44-------------8--2------0-
E|4---------6-4--08----4--02--------8-2--0---4----
E|04--4-4---------6-----------8-4------8--------4-
B|---8-----0---4-----4-------2-----------42-62----
G|---28-62-------8--62-8-----68----00-2-----------
D|---0--2--0-----00-----8-0------8-00-6--66--4--0-
A|2--------6---------4-8---8----4---4-22-8------8-
E|---2---8-------------80-4--8--0------8----------
E|08--2-2--------8--6-----8--44----------4--08-20-
B|-6-62-----6----6---4-0-----6-----2--------------
G|0---2-2------0--8-22--8-------20-6--8--0--44----
D|---4---2-----2-------6-----2--------68----------
A|-2-02-0------2--8-86--2-----0-68--4----64--8----
E|----4-68-4-----------6---2-26-------2---------6-
E|-------8-------2-----6--------0--8--------0--8--
B|6--------24----2-----------80----------6---8-4--
G|---06-0---0--4-6--6-----8---6--8-26-2--0------0-
D|4------0-6--0-----2--6---4-02-----------8-----8-
A|-8-------8---0-4---0--8--0--0-----2-----------8-
E|----4----6-----6--64-----6----8-----4-----08--6-
E|-0-----0----6---------0----8--4--0--84--8-------
B|---40--2-22----8---8--8-0------6--6----4------6-
G|26--8----8---4-8--8------------2-4--82----0--22-
D|6---2-0-----4--02--2-8---0-----4----0--0--20----
A|-8----8--6---8----------4------8-------0--------
E|---------2--6---------4-88-06-8---------2--0-2--
E|-------------8-6---4--4-4-----------------0--6--
B|----0--------6-------------8---------6----0-----
G|0--0---------8-42-82--2-2-----6--2--------------
D|-------2----4---------8--------------0--6-8-----
A|----8--4-82--6-66----8-----42-8--0--2---8-----4-
E|------------6--2--6---------6-------4---2--0-0--
E|-8--8--2--------0-8--2--------8------4-----8--8-
B|------6-----0---2----0---8--8-06-08-48-0--4-----
G|---6--42-----0-----0-8-----0--2---------2-8-----
D|6---------8--4-----------4-6--2---2--2--4-------
A|------2--4--80-------8---8-----4--0----4---8----
E|---48----------6---------0----------------60-24-
E|0--08-2--------2--0---------0----06-6--------2--
B|8--------0--4------2--0-66--------------6-2--80-
G|60----4-----------------8---------4-------82----
D|-------8--6----0--42-------------8---4--------0-
A|80-------2--------2--02-------2--------04-82-4--
E|----4-----0--4-----2-44--8-2--4-----6---0-8-----
E|4--------6---8-------6-----2-----4---4----24----
B|4--68----0--6--4---2-2-----2--------0-----------
G|-0----0---------------2-8------------4-----0-4--
D|----------------0-08----------6-----46--8-4-----
A|------4-----0--6-----4--8--------40--------0-8--
E|---88-0-----4--------------------------------8--
E|-------2-4---------------------8--8--8-8-----8--
B|------62-82--8-------------2--0---6--6--------4-
G|----6----0------0-2-----------------0--2--6-----
D|----------4-4--2---8----------8-----------------
A|-6----88-8---0-----4-----------8-----2-88--8----
E|8------4--8-0------2----40-2--0--------44-4-----
E|4--8--------8--68-02-0------4-4--8--8--------22-
B|---------2---2-----6-------8---8-04----6--8---8-
G|---------2--2-----00--6-00--2-------28-----8----
D|46-6---2----88-------------64--2-------4--40-2--
A|4--40--------------6--------2-4------0--4-------
E|-2----------------88----8-----86-------2---8----
E|---8--2--------88--0-------2--6-----0-----8---8-
B|22--6----0---4-------26--8--------------------4-
G|---26--4-------4--0---8-28-4------6--8----4-----
D|-6-6--4---0-------4---4----4-----0------8-------
A|---4--4---------------------6-----6-------0-----
E|------44--0-86----28-2-----4-----4-----4--8-----
E|2---0-----4-2--8------8-----0--6-0--0--------0--
B|----6----------62-8-----------0-----------------
G|---4---8-2--60--------4-0---0----24--8-4--------
D|------20--0--0-42--2-------------------86-8---8-
A|---------6---6----06--2----0--8------------6----
E|6---0-----0-4---4--------------0-----6-00--8----
E|---0--4-----6--88-----------------4-------------
B|6---2-28--0-02-------6--4---6-88----0-----------
G|4-----8---2----------0------6-8---6-6--66-0-----
D|-6-4---4----6--------6--2--4-----80----------28-
A|------64-4--------8-----26--0-8-----66-2------8-
E|----0--------------0--2-46-6--6--------28----4--
E|-------8-6--------84----------6-----------2-----
B|---------2-----6--------2--------------8-----8--
G|-------0-4-----------0--------------4--00----0--
D|-0----40--------4-0------8-------84-----0--6-4--
A|-------2-2------2----2--20-8---0--------6--4--6-
E|2--6------------------4-4-----8-----------------
E|8---4--------6-------40-6-----------------------
B|---8--6-----0---2-------2------2--------6-----6-
G|-------6-6------0----6--40--------0----------4--
D|----4--2--6----------02--------------6----------
A|---0---------4-----8-------82----0--4------8-24-
E|6------2-84-----4-----8-8---6----2-----8--28-8--
E|2--------4--------6--4-----2-----------6-----8--
B|0--6-----------06-44-62-------6-----4---2-----8-
G|---28--4--------4--4-0--6--0--6-----------0-----
D|0--0-----------4---8-4--6------------8----------
A|-------0-------2-----------6---6-8---8----------
E|---0--------20-------26-0--------8--20-8-----24-
E|-2--8-0--2--8---0--------8-------8--------2--4--
B|6-----0------4--6-------02-86--2-----6-88-------
G|---------28----------2--84-----8-0--4-----6-----
D|-6----0--0------6-----4----00-4---8----06----22-
A|2--2---0--------------4--0-------8-----8--0-----
E|86--4-42-----8----2---2-----6-48-22-6--62-------
E|-8-----0-48-------2-----68-2--6---4-----6-------
B|---82-0------8--2-0---8--6-----2-8---8-6--2---0-
G|----4-------2-----------2--4--4--0-----0--6-----
D|----8----6--20-----------2----64----0---0--2----
A|-0-------68--------6-6------------4-80-------0--
E|06-4---6-8---6--0-8------0-44--8--------8----6--
E|---2--------0--6--0---0--4----------------0-----
B|------6-----8--4------------2--8-----------2----
G|2------8--------4----2-----------44-6-----2---0-
D|-6-6---4--2----8--------------4--4--------6---4-
A|-0-8-----0--2-----66-2--6--48-48-40--6-4------4-
E|----0-0--0-----6------2--6----40----0--2------2-
E|-8--8-8------0-----------------------8-6--------
B|----4----2-----24--2--6----4--6--8--------2--4--
G|-0--8-----2-6-----20-----4-------0---------6----
D|----2-68-----4----2--------8---8-8--00-86--0----
A|-------0-----6--------------4-------8--06----4--
E|02-6--------------8--02-6---------2--------2----
E|2--------80----2-----6---0-4---6----4--8------6-
B|-8----6---4-----0-------------------------2--0--
G|0-----6--6---------6--6-4---2-26-------------00-
D|-0----------6---4--4-4---------6-------2---4----
A|---------------6--4---6-4------8-------0--------
E|-------8--4-----2-------84----2--0---6----------
E|----6-28-8--2---4-4--80-------2-----2---------0-
B|88-26-4------8-6--60--2-------4--------64-------
G|-2-02--------8--6--6-4-----4-----04--8--------6-
D|----2--6--8--2-0--4--4---2-6---4--------2----4--
A|44-2---4--------8--------4-0--80--4--2----------
E|4--68-------6-----4--40-48-6--0--------4-----8--
E|06-------6-----8-----------20--8----6------8-4--
B|------88-------------0------0--------4--------4-
G|---68--------4----------2-----80----00----------
D|4---4--6-4-----0--8---8----2---6-8---6--0-02----
A|------42----2-----6--------66-0-----86--0--6----
E|-0-------------40--------6-------8---8-----6-0--
E|6-----4--------00-6--44----------20--2-6---2-2--
B|---2--6--6--8--------------------------------2--
G|-6-0---0-------2------2-------22-2--4--2---8-2--
D|24-86-------6---6--0--------0-6------8--0----26-
A|-------4--------8--0--8----8--4-----08-------2--
E|8-----------4--8---8-2--6------4----------------
E|----------8----6-----------2---6-80--2----------
B|---2--------8---6-------------8--2-----04-----4-
G|----2-----2-----------8--0--4--2----4-----08----
D|44-0-----44-----2--------8--8-60----------------
A|----0-00--2----40-4---2--4--0--------8----------
E|---8------4--6-68-8------8-----2--8--------4--8-
E|2-----46-86-------0---2-6-----8---------2-0-----
B|------0--0-----04-------6--2-----4------4-------
G|-2-8------6-------------8--8---4--4-4---------8-
D|----6-0-----8--2--2---4--4-------8------8----6--
A|------8---------0----64-----------2-----------8-
E|----0----6--0--2---------------0----0--8-----6--
E|----------0----4---4-2---0-26----4---4----40----
B|----------2--0--2-----6--0----------------------
G|----4--6-----2-----------2-------4--2---6--6----
D|88-0---2-8-----2-----------------------------20-
A|-0--4-2--20----------6--64-8------6-6-----2---6-
E|8---2--------------6-28----------0--2-----4-----
E|60-6---2----------------06-6------6-40-08-------
B|2--------40-2--4--8---------8-80-----6--4-02-88-
G|24----68--4-------4---0--0----82--0-6-----------
D|----------2-----0-6-----4---4----4---4----------
A|----2-2-----8-----6-----0-----84-------0--0-----
E|------8---0-8--6-----------0---------4----6-----
E|---4---8----------26-----8--0----4--8-----------
B|----2--0----2--------60-----4--4-----------4-4--
G|-4-------46-----0--------------2-8---8-4--------
D|-8-----6-----6--6----0------8-0--------6--04----
A|8---------8-------62----42--------0-------------
E|4-----------------------------28--4-----------6-
E|20-------------0--88-2---0----4------2-----8--2-
B|4------4--8----0------6-2--44-----------2--0--2-
G|6-----68--2--6-8--6---2--0----66----46----4-----
D|26-6---2-62----42----46----28-----6-6--2--4--8--
A|6-----04-----------2--4--6-8------4-----2-------
E|-------------2-----8-----8-2--6--6--84-02--8-0--
E|-0-82-86--6--0-4---0-----2-------4------------8-
B|------2--6-----4---2-------0-----------------2--
G|---8--8--00--8----8--4---0-----8--------8-------
D|----2-48--0-0---0-----2----4-----8--0---2-------
A|8---8-8--4--4------2--8-6---4----8-----22----0--
E|42-----------4-----2-----0-8---2--4--4--2-4-----
E|-2-6--6---6----6-----0---------4--8----0-----2--
B|------------------------------2------6--------4-
G|0---6-----0-------02-26----4--42-4--4------8-4--
D|-2--------6--2-0--------------28----------8--2--
A|------60--------4--------2--------6--0-46-----6-
E|----4-8--6---------8--6-0-----62--2----2--------
E|---8--------------2---8--------2-8---4-----8----
B|4--0-----0---------6----2---6----06-----2-------
G|4------2--2-42----0---6--6-06-----0-------------
D|4---2--0--------8--0-4--4-----82----------6-----
A|----2----8--2--8--------80--6-----0-----8----44-
E|---6---------------0--------------2-8--6---2-2--
E|68--0-04-0--0---4----8--------8--4-----------0--
B|88-40--8--4--8-----6--8-------8--2--6---0-----0-
G|-4----80----6-----8---2--------4--------4-2-----
D|6-----8--62--8-84----8-----24--------4-2--------
A|---------0--44--------0-------------4-----------
E|62-----8-0--------2--64-08--0-8--------06-----6-
E|------0-----4---0--0-2-----8-----------24-0--0--
B|----0--8----0-----4-----6--------8------------6-
G|---0---------4-----4--------8--2-08----------00-
D|6--4--82----------------0--0------------4-6-----
A|4-----8------0----06-2--------4---8--6-------06-
E|---0------0----4---2-46----------------------2--
E|----0-----4--0--6-2---0-------08--0-46-0---0-0--
B|-------------8--8----8---8--4-------6---2--4-0--
G|-------------0----4--6---------6----------6---6-
D|-6-----4-------42----0---6-6---------4----2-----
A|------42-8--6------4-0---6----4-----0-----------
E|4---------6----------88-8---------0--8--8-20-06-
E|---2--84-------4---2-----2--------4--------2-4--
B|8--6--------04--0-----6-----6----------------4--
G|-6--8----02----6--6--------------------6--0-----
D|8---4----0---8-----0----8--86-6---6-88----22-46-
A|-0--------------4-8---------2-4---0----4--22----
E|4-----------------2--88----0--0---4-----8-6-----
E|64-6--2-----6---4----------8------6-----8-44--8-
B|8--2--6---------6-----------------6-6-----8-----
G|0-----------4--8---4-0------4--8----------------
D|------2--08-46-----8-48-4---2-----------------2-
A|-------4-8------0--0-0---4-----4-4--0---0----62-
E|---8---0-0---6-------2---------------8----2---2-
E|----8-4-----6--4--8---8--2-08----0------4--4--8-
B|---4--0---------6--2--------0-6-----4-----22----
G|40----------------08-6--2--------------66-------
D|6--0--0-----4--------------------64----2------6-
A|-0----60-------6-----------8--8--26--------8----
E|6------8-----6----6-----04----8--4-----6-----22-
E|---------------4------------0-----6-------2--2--
B|----------------0----4--4---2-4--6---0-4-----04-
G|48-----8-------20-------66--6----2--------2-----
D|4------------6----------------0-----4-----8--60-
A|8--------2--2---6-64----6---8-80--0-48--2-0---8-
E|4--0-----6--------4---8----4--------88----------
E|------6--6---0-----0-----6--2-------4--60--2-0--
B|-2-----4-----8-----6----04-48--------8--0-------
G|----6-----2-------66----2-----6-----------4--2--
D|----4--------0--6-62-------------8--------------
A|66-6--82--0--------8-----2--6----------8------8-
E|4--------2---------2--8--------6-6-----82-------
E|-------------------4--6--------------4--8----44-
B|8--4---------8-00--2-------2---0-0---6----06----
G|-6-04-0--2--------2------4-----8-----------6-4--
D|------------0------------------6-2-----64----0--
A|----4-26--0--2--8-2-----------------48--2-48----
E|0-----06-----6----4--4-----42--4-----8----0--82-
E|---------66--8-----8--2-----8-4---2-20----------
B|-------8--4--2-------2---------2-----2--4--8--0-
G|---8--------2---------------------4-------4-----
D|-4-2------8----2------4--2----------8-----66----
A|-------8-----------4-----6----------0-----------
E|-0--------8-------4--8--44----8--48-------08-2--
E|---------2------------6----08--4-0--24-06-------
B|----6----0--------2---0--6-----8--8-----------4-
G|-4--------------0--------6-4-----0--6-----------
D|---82--6-0--02--4-0--------0--62-80----06-48----
A|-0----6---6----2--0--2--------4--6--6-----8---8-
E|---------6---2-----8-8--8---0----------26-------
E|----0--6-46-----2----8--------6--08-------8--0--
B|------4-----86----4---8-6-----------2--------0--
G|-2-2------------------4-------86-----4-8-----64-
D|6------0--2-2--0--2---------0-----------------4-
A|----6--8-4---------------------------------6----
E|----6----2--0--40-88-28-----4-68-----2-6------6-
E|-2--6-4------------------2-----8--4----------8--
B|------0-----26----4---0-----4-0-----0-----------
G|-0----8------0----2--6--8---0-------4--26-66----
D|----2--------2----------22----6---2-84-00-------
A|---0-----0--8--88--0-6--64-4--------8---0-------
E|-0-0--------------2-----8---------8-02----0--0--
E|------------2--------2-----68----------60----6--
B|44-------2-----------------0------------0-0---8-
G|-8-----------4-------------4--06--4----8--64----
D|6-----2--------8-----------2-----8--------------
A|----------8--0-------2---6-------0-----8---0--2-
E|8---6--6--4-----4--0-42----4------------6-6--68-
E|22-06--------4-02--0-----------6-2-----62--8----
B|---2-----2--6--46-6--0--4---4-6------------4-4--
G|----2-6------4--2----4--66-0--8-----------84----
D|-2--8-----6----4---4-2---------------0-0--2-----
A|06-4-----6--0------8--------0--0--8-----6-----6-
E|---82--8-2-----2-----------6--2------2----------
E|------26----8--6--6---8-----4--4--0-----8----80-
B|---0--6---2--0-------82----0---8----8---2-8-----
G|------20-----8-66-0--0------8--4----8---0-------
D|---0---6----4--------8---8--0----8--4--------8--
A|----0----------------82-----0--0-----6-----8-26-
E|8-----46--0-----8----46-80--4--8-4--46-------6--
E|-------------0-------6---6-------------------88-
B|-2-----------2-------4--------4---------4-----8-
G|44----0--88-------0--8--8--6------4-8-----------
D|---------4-----------88----86--------0--8-40----
A|------0------------8-8--------40-4--0-----0--66-
E|----------0-4--28-------6-----84----------------
E|2--42--2----6--4---6-------0---2----2---4-6-----
B|-0--8-0--2--4-----6--2--0---6-2--2------------8-
G|86-2-----4-----0------------8--2-4------8-8--8--
D|-2-0---2--------8--------8--4-----8--6-4---8----
A|-6--2--6-----2--------8--0-----------0----66----
E|---4-----2------------6--6--0----86-6--84----8--
E|------6---------0----2--2-----08-4---------8----
B|---88--2-82-26----46-6-----2--------6---0-------
G|------------2--28--8--0-----2--6--------0-----2-
D|6--24--4--0----------64--0--0--0--2--2----42--2-
A|---4--6--------6--42-0--8---6--------6----------
E|28-------------2--------8--------------6------6-
E|62-------6---4-4-----4-----8-----8--26-----4-80-
B|-6--4-2---8-----6--------4--------2-----------2-
G|-4--0-----------8--------------0-4-----24-------
D|2---4-62-24-8--68-------02----6------6--2--6-6--
A|-0-6--8--2--------------86-----6-08-62--2----80-
E|----------0----4---2-0------8-0--0--8-----------
E|8-----4--0-----8---8--4-6--26--------4--8--8----
B|------6---------2-------62-6---------0----------
G|-2-----8----2-----8------------------6-------04-
D|---------4-----4--04-----------------0-----8----
A|-2-2--08-6---------4-2---2----6------2----04----
E|-4----------46-8------2-----6-------2-----------
E|0-----8--2--0------0--6--8--8----------0--86-4--
B|---------4--24-2---0----8------------6-00--6--2-
G|------0---6----2-----6--66-0--08----0-----------
D|----------0-0--86-2---6-----------2----84--2-4--
A|80--0-0--2------------------6-26-2---------4----
E|8--4-----8-----------8------8-48-66-08-------2--
E|------6--2------0-2--48----0-----------2--80-22-
B|----------2-4------2-6------------8-8---0----6--
G|------------2-----0--20--2----0---2--4-----6----
D|-------------2----0--06-----------2--2-----8-4--
A|------------08--------6----4--2-----8---8-------
E|8--------84--------4-4--24-42--6----------------
E|-0-00-88-----------6--6-4-----6--4------------4-
B|-8--2----------------4--8-----4---6----4------8-
G|0-----2--------62-----0----------0--8-----4---0-
D|------6--44-8-----60--------8-40-------88-------
A|------60-------2--8-----0--6---0--4-------4-----
E|----6-----4-04-------0-----20-4--------6--28----
E|-0-04--8----2------6-----8-4--0--0---8-66-06----
B|---------0-----8------------6--------2-08-4--0--
G|2--26-2---8-----6-0--22----4--------8---8-------
D|---6--8--------------8--4---6-------68-------84-
A|------8---8-2--84--4-0--6-----2---------0-0--04-
E|------82--0--4--8-2--4--66--4--0-2---6----------
E|02--8-------2--4--06--2--4-----8-2---------6----
B|2--0---8-2--24--4-------4-----8------8-8--------
G|---8--6---8----------0------------6----6--------
D|---0---2-0---6-6--2-----8------6--------------0-
A|6-----------------04-----6-----6--6-4-----0---8-
E|84-02--2-6--8--------------6-----24--6--4-6---4-
E|------------8-----2------4--2-6---8-82-8---8-2--
B|---62-------2---4----68-------------06--8--0----
G|6------0-----0--4----------4------2----------8--
D|----2--2--4-40-6--42----08-----------4-6-----6--
A|---2------4--0--4--4-2---0-------------------8--
E|---0-----------60----2--2--8-----8--2-----6-----
E|---48-------------6--66-----2--2--8--6----------
B|---2--46-------00-8-----8--60-----2-----8-66-6--
G|---------------------8--------02--2-8---6-62-0--
D|---0------4-----4-2-----2--2--2--0--4---2----2--
A|------02-----------6-----2-2-----------0--6-----
E|----0--------6-8--0-----8--------8--4-----80--0-
E|-4-------8--------6--6-----2-----22-------4--6--
B|-------------0----8---------6-------4---2-0--28-
G|8-----86----2--------42--4-22-6--0------0----4--
D|----4-6------0-46-80-0---------------2----------
A|-0-------------8-----4--2------------6-28-------
E|-0-----8--4--------6-44--2--0-0-----8---------0-
E|---4-----8--24-4-----0---0-8--6--2---4----------
B|---------0---6--6--0-------6--------86-------62-
G|6---------4-4---0-4---8--2-8---6-6------8-------
D|2-----6---4--------6-66-4-----8---6--2--------2-
A|6------4--6-86----------------64-------2--------
E|------6------2-4-----------8---2--0--8-80-2-----
E|-2--4-4-----------24----------6--88-26----0--8--
B|---2-----6--0--8--6-----2-----8--------88-------
G|-2-----0-------------4--8-----6-----0---6--0----
D|-2-2--4---6-----0-8---------0-4---2-20--8-----4-
A|84----0-----4-----------6---0-68--2--4--2-------
E|----4-----0----------------4--6-----2-----------
E|48-----8-48-----4-------26-48-6--88----------46-
B|84-82-8------0-----------------8--------6-60----
G|----6-02----60-6--2-----------------6------6--6-
D|----8----86-----8-2--------28--6-66-----0--8----
A|---4------------------------------4----48--8----
E|-0-6------2----82-----------6-4------8-----8----
E|------8------0-4---0-------00-----------6----8--
B|2------------------8--------6-44-8------8----2--
G|-------2----06----------0--60-----------2--6--8-
D|-6--4-------8---------4-0---4-8--------6-----22-
A|---2-----4--2---0----4-----0--22----86-04--8----
E|-0--6--2-----------------2--2--0-64-----------6-
E|---------02-0---4--0-0--0--------68-22----------
B|------2---0----8--0--0------------4----6--------
G|------------8--4--------------------4---4-6--2--
D|0---------2--0-6-----4--48-40-4--26-----6--8----
A|8-----02----------------02-2---2--------6----0--
E|-8----88--0-6-----8------4-----4--6--2-62-20--8-
E|4------8-8--6---4--6-------8--80-----4--------6-
B|----------4--8-----8-24----8---6-----6-8--2---2-
G|-2-2---------------------0----4--------6--0--0--
D|4-----8--6-----60-----0-4-----2--00-----8-08----
A|---06-------------60-26-----0-------4--0--2-----
E|-8-64-20--0-4---0-----2-----8-4--4--------2-----
E|6------------0-----0--0-------0--00--------0-2--
B|----4-84----4--04--6--0-------------------------
G|2---0----8--26--6-8------0--8--8-4------6-8--6--
D|---6--0---------6-----2--6-------44--2-----2--8-
A|---------06--4--6-------------0---2----2-----0--
E|----8-8------2--2--4----0------0-4--------------
E|---8-----6-----4--24-----8-8--8---6--6-64--8----
B|6---8-----6-4--2------6----2--------20--4-6--4--
G|6--8--2---2-4--------6---2-4---------6-----4----
D|6--0---------4-0---0--8----------------00-2---8-
A|2------------------0-----4--8-------------2-----
E|------28-22----8------4--6--2-----4----6-----2--
E|---08--6--------2-----------0-0------8--8----6--
B|----------0--2--4-----6----------4---------0----
G|4--0------8--------4-----0-2---2-0-----4--8---6-
D|---------06-------2---------6--0----40--------6-
A|---8--6--2--6--------0-----42-----6-----0-86--0-
E|----6-86----4-----80-60-6------------2--2--2----
E|---4--4--------8--8--66-------42--4--6--2-4-----
B|------8------2----8------8--2--4--8-----0--4----
G|----------0-26--------------6-------6------2-6--
D|-4-----0-------48--------8-8-----46-6---0--2----
A|------84----8------2--4--0-6---4--2--6----------
E|----8-----8-------------6--8---8-----0--4--0-48-
E|4--20----------86--2--4----------06-------8---4-
B|2-----2------2----2--2------4-6--0--------8---8-
G|-0----------------------2-----------2--4--8-----
D|2--8------6--------------0----00-86----2--------
A|------0-----------68----8--------4--8---2-----6-
E|-------4-8---2--------8--2-6--8--8-----4---2-6--
E|8---------0--0-2--------2---0--2-------84-------
B|-8----6------6-8--2---4----86-------8--08--6----
G|-------0-------0------4-66--------8-8---8-----0-
D|----6----0--08----8--8---6-82----20--------0-8--
A|-------4-----------------------2--8-------0-----
E|-------4--6----------46-62----------26-2--------
E|-2----4--26--------8-0--4---6--8-------68-------
B|2------------------0-------6---4-8---0----8-----
G|----------2-----------4-6--4---4-2--8---0-------
D|---------6---------2-82--4-88----6--------------
A|----------4-2--------------20-8------6-2--------
E|----4-6--64-----8-----0-4------4--2-20-4--------
E|----------4----8---4-----2-0--------2-----6---2-
B|----2--8-86--4--0-2--8--------8-----06----------
G|6--2---0--4-20--------6-22----6---4--0-8--------
D|----0--------0-----0-60--------0----2--4---2----
A|60-22-4--8--------2-----8--6--4---------4-82----
E|82-4--04-08--8--------2--2-22----68-28-6--88--8-
E|2------2--8--2-----------4-----------6-----0--4-
B|-2-8---0-----0--6--------------6-0--2---------8-
G|------4--6------2--------0-6---4-----------8----
D|---------6-----80-6--------4-----44----64-4--2--
A|0---0-----6-------24--2--------2--4-60-------08-
E|----0-------6--6--------4--0---6----------62--4-
E|-4-6-----------8--2--42-------0------8-00-0---6-
B|2-----------------4---------6-06----0-----------
G|06----8-----8--64--2-------2------2-60-----4-0--
D|---------2-----60-----------4-84-6--------------
A|6--------0-----60--2-08--0-----8-80----6---2----
E|2---------------6--4-----------0-20----48-0---8-
E|-8--8--6----------6--08-----4-----------6--2-24-
B|---6-----4---0-80-2------0--------6-----2-8--6--
G|0--6--0---------8--2----0-----26-0------2-------
D|----2-0--2------4--------6-----------6-----8-86-
A|---------68----0--------2--24----64-6--6--------
E|----6--------------8--6--------0----------88----
E|6--0--06-------2-----------6-----------0------6-
B|---0-----44--------2--------6-0-----6-----46--6-
G|----2--------2--4-----2----------------46----0--
D|0---0----0---4-----6-88--6--2-8-----0------6-82-
A|---0--6-----2--8---------4-----2-2------4-6-----
E|-2--0-------0------6-2---2-0--------------6---8-
E|4--26----4--2---6--2-2--00--6-------2-----8---6-
B|6-----28--4-22-68----8---4-----------------6----
G|-0-40-4--6---6--6-0--8---8--------2-6-----------
D|---------2--2-----8-----68--------6-2--4--8--2--
A|---------4--------00-----------6-8--------4-----
E|6--8-----4--6--6---6----------------4--4------4-
E|-8-------08----6--------00--0-6-----46----8--2--
B|48----62-4--2---4-------4--8------0-88----------
G|---04--8--4-8---6-8--6---8-6--04-8--------06--4-
D|0---8----0---2-26--2--4-4---8--6-6--6--------68-
A|----0--8--2-6--84-64-6------0----6------------6-
E|8-----------------------86-8--2--84-0-----------
E|---2--22--4-----4-2------2--2-----2----24-6-----
B|-------------6--2-----------6----2---8--------8-
G|0---6--4----80-4-----4--------6---0--2----8---0-
D|---68--0--8-----4----4--4-----------------2--6--
A|-------2-0-----------4--44-26-----6--4-4-----6--
E|-4-28--0-8---------2----------4--2------2-------
E|-2--0-----0--2-8--0---------6----8------6-------
B|------68-46-------2--------8--------------------
G|------6-----4--40-24----44-2-----46--0-------0--
D|-------6----------------28-----4--8----2--6-----
A|-4-------48--------2-2--4---------2-4-----4--2--
E|8------4-----------------6--------------0--8----
E|---8--4--6--8---4-------6-----2-----80-4-----0--
B|------8-----68-------6--46-2-----48-----0--6-20-
G|0---8-4---6-8--2------2----0--8-----------------
D|---------8---0-0--4---6-----------2-4---8-8--80-
A|-6-2------------4-------8-----0---8--2-2---2--4-
E|---------4--------6--84-46--8-------6--42-04-0--
E|6--62-4---------6-6--------8-----60-48-------80-
B|8--4---8----0---0-4--42-6---0-4--0------------0-
G|---------6------2-2--46----------28--4----2---2-
D|6-----6---4-----4----8---2----84--4-48-------84-
A|-6-02----06-2---------------------0-4--------62-
E|---6--4------0-------6--------4---------0--6----
E|-------0-------------2---------4-42-------------
B|------6--0--2---6----64-----------4--6--0-4---6-
G|-8-----4-8---0-------6---4-----0--8--0--2----4--
D|0--4-----2-----0---------0-----4--4----0-----6--
A|-8-46-8---------8-00-6---8--2--6-----0--6-----6-
E|---68-2---2-----4-6--40--2----8-----------8-----
E|-6----60--2-00-2---2-------------------40----26-
B|6--8---6----2--42-----2-----6-68-42-6------6-2--
G|---------------42----------------66--2----------
D|-------4-0---------6----0------2----44-----6-4--
A|----6-------60-------44-4------8----48-------8--
E|-2--2-4------------2-0--24----62-4------0-------
E|----8-----4--2-------6---0--0----2---2-------0--
B|-8--4----------84----62-04-8--08--0----2---8-4--
G|2---------8----2--62----2--------------8--------
D|------------------8--------------46-26--6-------
A|24-0---4----48--4----6-----------2--4---------0-
E|-------8----2--6--06--6-----6--2-02-6--------6--
E|6--------8---8-----8--6-----4-------2---4----0--
B|0-----2------------6--4----2------8--2-----0-0--
G|---2---8--2--0-----2-4-----4--6---4-8---0--2----
D|40-6---8--------8--4----------2--6--------------
A|6------0--4-----0-------6--42--0----------4---8-
E|4--8--02-0-----08--2-06-4-----22----0--6--6-----
E|-0-2--20--6-----8-----------0----6---0--0----0--
B|48--2--2--6-------------6--2--6--86----2--00--8-
G|-------0--2----8-----4-----8------6-------------
D|---42-8---2-6------------0----------6---8-48----
A|0-----------------2-----22--2-------6--28--6----
E|8--0--8--00-4---2----0---2-------4------------0-
E|---0--0--0---8-2-----------86-4---4-----8--2----
B|---44-6-----4-----0-----4-----6--2---4-6---0-42-
G|----0-20----6--------22-8---0--6----------22----
D|---88-4--2--8--------------8--2-----8-----------
A|2-----8--6-----64--0-----2--------4-------------
E|------------4---0--------------2-----6-46-40----
E|-2-------4---4-2-----------6---------2----84----
B|-8-------8------6-4--------0---0-----8-----0----
G|26-6-----8-----0---------0--8-----0----8--0-----
D|-6--8----8--2-----0--0------6-------80-----0----
A|---0---6-------8--------64--6--------8-6--------
E|-4-----0--6-4--80-0-----6---6--8--2--8-40-----2-
E|-6-66----24-------------8---2----2-----8-----8--
B|---6--6-----------2-----0---------0--8--------4-
G|---------82-------0--4---------------8--------2-
D|6---4--------2-6--2------0--6-88-0---4-----6--2-
A|8---4-------6--------22-----6-0--2---0--------2-
E|-4-0--0-----------88-----4--2--------0-----0----
E|---8------0-6--08-0-----68-02-2-----06-----8----
B|-8-6--0--26--0----6--82-60-----------6--8----06-
G|---------8---8-2-----2---0--4--6----82----4---4-
D|06-6---0-----2----------------0--6---6----2--62-
A|0--------0-----84-2-----4---0-------6--0--6-----
E|---86-84--2--6-8-----------2---4-2--------------
E|-8-----4----8--6---8-64-----4-----8-6------2----
B|2---2----6-----4--86-----------6-----0-------8--
G|-8--6-----8--0-26--0--8--8--4-0-----------------
D|-6----8--------8------6-------28--2----6---6----
A|-2-8-----8------4--------------4--------8-------
E|---4------6-----8-2------8--------------0-------
E|---2--2------6----4--0-----6-----68-4---------2-
B|----4-2--------8------------2-0--4--2-----------
G|------8---0----------26--------8--0----6--------
D|----------2----------8------2-------0-----------
A|62-00----8---------------2----6--------8--------
E|4------0-64--6--4--2-40-28--6-6--04-----2----24-
E|-2-86----02--8--------2--6----6-----8-----------
B|26--6--------2-------20----------8--------80--0-
G|2------2--4--0-88----------8------------4--8----
D|------2---6----------4---4----6--0--2-----66-26-
A|-------0--0-8--4--2--24--8--4-86----------8--6--
E|---4---6-48----60-----------6--0--2-8--06-4---4-
E|----0-----8--------8-----0-2--------0--2--8--80-
B|----4--6-----6--------------------2-----0--4----
G|44-6--6---0-------4--8-----04----------2---4-4--
D|------2-----6--6---0----------6-----2-----------
A|------------4-----86----68-------46-------4---4-
E|-2-----------6-48----------------------2---6----
E|26--8-2-----06-20-------04--4----8---0-04-4--4--
B|8-----84--4--------0-8---------6----08----------
G|4-----------4------8-4--0---------2-6--4--4--80-
D|-0--4--------------6-2-----82-----8-0--46-2-----
A|-8----6-----6--4---6--0-----2--4-6-----86--8-24-
E|8------6--------------------2-2-----------4-----
E|6---2----0---2--2-------------0-----4---8--0-0--
B|---86----8---4--8--2----22-----2-20-4---4----2--
G|-2--8-8--------6---------6--2--0--8--4-86-------
D|6-----------0------2-----------2--------4-------
A|------8--------2--60-6------------6--0-------8--
E|-8-8------------2-------2------------6-0-----6--
E|---84--0-----------8----4--8------2--6-2------8-
B|----0--4-----2----6--6--20--2----4--86-2--6--0--
G|------6-----------84----8------------2-----4----
D|---------8--------4-----8--00-0-----2-----------
A|-4-80-2---8--2-----0--8-------2-----4-----2---2-
E|---------6---8-------68-8-----4---------0--2--4-
E|28-0--60----8---0--2--8-----6--8--------------8-
B|------6--------------20--------6--2----2--62--8-
G|----6-02--2-82-0--6------------8-------28-8--4--
D|------------60-02--0--4--2-----------8--2-8-----
A|---2---8--------------------8--0--0----80-----2-
E|4-----0--------08----2------8--8----28--------8-
E|-8--2----8---------2-----2--2--8-44-------------
B|-------------0-----8-------------4---4-86-----0-
G|68--0-00-8--88----8---4-------------8--24----6--
D|----4--2--4--8----84----0--40-68--------0-------
A|66--------0-2--------22-----------------4-----6-
E|---68-------00--4-22-2---6-------44-2-----8-----
E|------6--------2------------------6--4-------4--
B|---------0-----24-----8-8-----2--86----62-60----
G|----2-0---8-44-8------4-82-4--------6---0----0--
D|------6--2-----------0--86--2-------4--80----88-
A|---------------------0--42-----8----0--0-----26-
E|-0-2--2-----66-8---4-------------0--8--4--------
E|------44-0--------4---0----0--------------44--2-
B|-0----6---6-----------2-80----8--8--6--22----46-
G|---------64-0-----2--8---------0-0--------8--4--
D|2-----8--0--40-----------------6-------44-4-----
A|------60----08--8-----4--4--8-42--8-------2-----
E|-2-88--4-6--0--------8--2-----2---2-----4-8-----
E|2---0--6-2------8--2-8--------88----6-----------
B|8-----0--2---------2-42-------6---8-------86----
G|---------8------------8--4--------0----0---6----
D|------2------6--------4--0-6-----0---4----62----
A|42--4-8--66--4----6--02-----2----80-------------
E|---4---------0-20-2---0-------6------2-----8----
E|8-----8--------------2---------2----6-----26----
B|----4-0--------------28-0---------8----0---4----
G|----4-----2--0-0--------2------------2----------
D|4--6-----6-----------24----------0-----2--0-----
A|4--8---4-------8-----86-------4-----------8-----
E|26-----0-4------2----4------6-0---2-------2--4--
E|----6-68-2-----------46-----2-6---2-6---4----4--
B|-2-------6------4-------------46----8-----68-42-
G|0--------------0--80-4--26-----6-48--6----0--6--
D|----0-4------2--6-------6--2--8------4-66--0--6-
A|4--6-----48-2---8----6------2-----------2-------
E|2---2-82----------6-----------68-8--4------0----
E|28-6--42-----6-----0--0-0-----6---6----6--8--06-
B|----------------0-8---8-28-6-----20--6-8--00-8--
G|---------------0------8-8--22--2-4-----6--6-----
D|8------4----------------8------8-2--4--26-----8-
A|-4--2-4-----0-----8--4--2---6-2--0---0-0------0-
E|----2--0----4------8--2-----8----------84-------
E|---6------0----8---------0-----0--8-----0-------
B|0---6-----------8--2--------4-----0-----0--8----
G|---04-2------------4-2---------2-8--4------2----
D|0--02--6-------------6------------------8--2-4--
A|8-----------4-----2---4-----------4-2---8--4-44-
E|------2------------4-------68--8-----2-40-6-----
E|-0--------2--2----------4--2--4---2-------0--8--
B|0--------8--02-2-----8-----2--------60-----6-0--
G|---24-0---4-8--------0--------68--0-6-----2-----
D|------------8---------6-----0-----4--2-2--4-----
A|-0-2---------6--2--2-------2--4--26-----4-----2-
E|----------8-8--------8--6---0----86----80-24--4-
E|2--6-----2---6-2--0--0--6--26-4------4-2-----66-
B|-6--6-4------8-------6-----4-----0--------6--2--
G|82-----8--2----2--------6---0-----6-------2--2--
D|62----------2--8------2-0------0----8--4--------
A|----4-00--------0-----2--4--------2-6-----------
E|----4-0--2--------60-68-86-68----6------2-0-----
E|2-----------6--64-2--4-----------6--------0---8-
B|2---0--6--------2-------6------8-----------8-80-
G|8--68--8-86--0-------4--06--4----2--8---8-------
D|2--64-62--------0-----------8-2-----8--6--20----
A|-4-----8-00--8-----------6-0-----48-6--4--------
E|4--28--2--6-48--4-------0--60-----0--4-6-----2--
E|-6----2---4-4--0---4-8--6--4-----80--0--4-6-----
B|-------------6--8--0-6---0----0---2--4----------
G|-0----------00----6--2-----6-----------0--------
D|-------------------------4--------6----60-4--0--
A|----6----28--------0----28-0--4-----08----2---8-
E|


Login to Edit
Edit
YouTube
Video
View Sheet Music
Sheet
Music
Print
Speed:
Play Intro (login for the full song)
Play
Intro
Sustain:
Download midi (intro) ...

 Rate:
5 star
4 star
3 star
2 star
1 star
 

Comments (0)
 

No comments yet...

Comment on this tab   -   Unhelpful comments are exterminated.
  Your Guest Name:
      [Member Login]
  Comments:
 

Don't understand the tab?
See "How to Read Guitar Tabs".
Supported tags:
<i>italics</i>
<b>bold</b>
<u>underline</u>
<tab>tab lines</tab>
  Are you a spam robot?

If not, solve the equation:




[160 TabNabbers online]
©2020 TabNabber.com - Musician Supported Contact us Advertising Merchandise Privacy Policy Terms of Use facebook Twitter