TabNabber Tabs   Musician Supported
  Tabs de Piano
Espa˝ol English
Franšais Русский
Artista: # A B C D E F G H I J K L M N O P Q R S T U V W X Y Z
guitar

Guitar Tab, Acordes



(0 from 0 votes)
2,344 Vistas, ´┐Żltima Revisi´┐Żn 2 years ago
by: savannahwilliams
guest

Tabber
[Tabber]
E|-----------------|-----------------|-----------------|-----------------|
B|-----------------|-----------------|-----------------|-----------------|
G|-----------------|-----------------|-----------------|-----------------|
D|-----------------|-----------------|-----------------|-----------------|
A|-----------------|-----------------|-----------------|-----------------|
E|-0-0-0-0-0-0-0-0-|-0-0-0-0-0-6-6-6-|-7-7-7-7-7-7-7-7-|-7-7-7-7-7-6-6-6-|

E|-----------------|-----------------|-----------------|-----------------|
B|-----------------|-----------------|-----------------|-----------------|
G|-----------------|-----------------|-----------------|-----------------|
D|-----------------|-----------------|-----------------|-----------------|
A|-----------------|-----------------|-----------------|-----------------|
E|-0-0-0-0-0-0-0-0-|-0-0-0-0-0-6-6-6-|-7-7-7-7-7-7-7-7-|-7-7-7-7-7-6-6-6-|

E|-----------------|-----------------|-----------------|-----------------|
B|-----------------|-----------------|-----------------|-----------------|
G|-----------------|-----------------|-----------------|-----------------|
D|-----------------|-----------------|-----------------|-----------------|
A|-----------------|-----------------|-----------------|-----------------|
E|-0-0-0-0-0-0-0-0-|-0-0-0-0-0-4-4-4-|-7-7-7-7-7-7-7-7-|-7-7-7-7-7-6-6-6-|

E|-----------------|-----------------|-----------------|-----------------|
B|-----------------|-----------------|-----------------|-----------------|
G|-----------------|-----------------|-----------------|-----------------|
D|-----------------|-----------------|-----------------|-----------------|
A|-----------------|-----------------|-----------------|-----------------|
E|-0-0-0-0-0-0-0-0-|-0-0-0-0-0-4-4-4-|-7-7-7-7-7-7-7-7-|-7-7-7-7-7-6-6-6-|

E|-----------------|-----------------|-----------------|-----------------|
B|-----------------|-----------------|-----------------|-----------------|
G|-----------------|-----------------|-----------------|-----------------|
D|-----------------|-----------------|-----------------|-----------------|
A|-----------------|-----------------|-----------------|-----------------|
E|-0-0-0-0-0-0-0-0-|-0-0-0-0-0-4-4-4-|-7-7-7-7-7-7-7-7-|-7-7-7-7-7-6-6-6-|

E|-----------------|-----------------|-----------------|-----------------|
B|-----------------|-----------------|-----------------|-----------------|
G|-----------------|-----------------|-----------------|-----------------|
D|-----------------|-----------------|-----------------|-----------------|
A|-6-6-6-6-6-6-6-4-|-4-4-4-4-4-------|-6-6-6-6-6-6-6-6-|-6-6-6-6-6-6-6-6-|
E|-0-0-0-0-0-0-0-0-|-0-0-0-0-0-4-4-4-|-7-7-7-7-7-7-7-7-|-7-7-7-7-7-6-6-6-|

E|-----------------|-----------------|-----------------|-----------------|
B|-----------------|-----------------|-----------------|-----------------|
G|-----------------|-----------------|-----------------|-----------------|
D|-----------------|-----------------|-----------------|-----------------|
A|-6-6-6-6-6-6-6-4-|-4-4-4-4-4-------|-6-6-6-6-6-6-6-6-|-6-6-6-6-6-6-6-6-|
E|-0-0-0-0-0-0-0-0-|-0-0-0-0-0-4-4-4-|-7-7-7-7-7-7-7-7-|-7-7-7-7-7-6-6-6-|

E|-----------------|-----------------|-----------------|-----------------|
B|-----------------|-----------------|-----------------|-----------------|
G|-----------------|-----------------|-----------------|-----------------|
D|-----------------|-----------------|-----------------|-----------------|
A|-6-6-6-6-6-6-6-4-|-4-4-4-4-4-------|-6-6-6-6-6-6-6-6-|-6-6-6-6-6-6-6-6-|
E|-0-0-0-0-0-0-0-0-|-0-0-0-0-0-4-4-4-|-7-7-7-7-7-7-7-7-|-7-7-7-7-7-6-6-6-|

E|-----------------|-----------------|-----------------|-----------------|
B|-----------------|-----------------|-----------------|-----------------|
G|-----------------|-----------------|-----------------|-----------------|
D|-----------------|-----------------|-----------------|-----------------|
A|-6-6-6-6-6-6-6-4-|-4-4-4-4-4-------|-6-6-6-6-6-6-6-6-|-6-6-6-6-6-6-6-6-|
E|-0-0-0-0-0-0-0-0-|-0-0-0-0-0-4-4-4-|-7-7-7-7-7-7-7-7-|-7-7-7-7-7-6-6-6-|

E|-----------------|-----------------|-----------------|-----------------|
B|-----------------|-----------------|-----------------|-----------------|
G|-----------------|-----------------|-----------------|-----------------|
D|-----------------|-----------------|-----------------|-----------------|
A|-6-6-6-6-6-6-6-4-|-4-4-4-4-4-------|-6-6-6-6-6-6-6-6-|-6-6-6-6-6-6-6-6-|
E|-0-0-0-0-0-0-0-0-|-0-0-0-0-0-4-4-4-|-7-7-7-7-7-7-7-7-|-7-7-7-7-7-6-6-6-|

E|-----------------|-----------------|-----------------|-----------------|
B|-----------------|-----------------|-----------------|-----------------|
G|-----------------|-----------------|-----------------|-----------------|
D|-----------------|-----------------|-----------------|-----------------|
A|-6-6-6-6-6-6-6-4-|-4-4-4-4-4-------|-6-6-6-6-6-6-6-6-|-6-6-6-6-6-6-6-6-|
E|-0-0-0-0-0-0-0-0-|-0-0-0-0-0-4-4-4-|-7-7-7-7-7-7-7-7-|-7-7-7-7-7-6-6-6-|

E|-----------------|-----------------|-----------------|-----------------|
B|-----------------|-----------------|-----------------|-----------------|
G|-----------------|-----------------|-----------------|-----------------|
D|-----------------|-----------------|-----------------|-----------------|
A|-6-6-6-6-6-6-6-4-|-4-4-4-4-4-------|-6-6-6-6-6-6-6-6-|-6-6-6-6-6-6-6-6-|
E|-0-0-0-0-0-0-0-0-|-0-0-0-0-0-4-4-4-|-7-7-7-7-7-7-7-7-|-7-7-7-7-7-6-6-6-|

E|-----------------|-----------------|-----------------|-----------------|
B|-----------------|-----------------|-----------------|-----------------|
G|-----------------|-----------------|-----------------|-----------------|
D|-----------------|-----------------|-----------------|-----------------|
A|-6-6-6-6-6-6-6-4-|-4-4-4-4-4-------|-6-6-6-6-6-6-6-6-|-6-6-6-6-6-6-6-6-|
E|-0-0-0-0-0-0-0-0-|-0-0-0-0-0-4-4-4-|-7-7-7-7-7-7-7-7-|-7-7-7-7-7-6-6-6-|

E|-----------------|-----------------|
B|-----------------|-----------------|
G|-----------------|-----------------|
D|-----------------|-----------------|
A|-6-6-6-6-6-6-6-4-|-----------------|
E|-0-0-0-0-0-0-0-0-|-----------------|

E|-----------------|-----------------|-----------------|-----------------|
B|-4---------------|---------------3-|-2---------------|-----------------|
G|-3---------------|---------------2-|-1---------------|-----------------|
D|-4---------------|---------------3-|-2---------------|-----------------|
A|-2---------------|---------------1-|-2---------------|-----------------|
E|-----------------|-----------------|-----------------|-----------------|

E|-----------------|-----------------|-----------------|-----------------|
B|-4---------------|-----------------|-9---------------|-----------------|
G|-3---------------|-----------------|-8---------------|-----------------|
D|-4---------------|-----------------|-9---------------|-----------------|
A|-2---------------|-----------------|-7---------------|-----------------|
E|-----------------|-----------------|-----------------|-----------------|

E|-----------------|-----------------|-----------------|-----------------|
B|-4---------------|---------------3-|-2---------------|-----------------|
G|-3---------------|---------------2-|-1---------------|-----------------|
D|-4---------------|---------------3-|-2---------------|-----------------|
A|-2---------------|---------------1-|-0---------------|-----------------|
E|-----------------|-----------------|-----------------|-----------------|

E|-----------------|-----------------|-----------------|-----------------|
B|-4---------------|-----------------|-9---------------|-----------------|
G|-3---------------|-----------------|-8---------------|-----------------|
D|-4---------------|-----------------|-9---------------|-----------------|
A|-2---------------|-----------------|-7---------------|-----------------|
E|-----------------|-----------------|-----------------|-----------------|

E|-----------------|-----------------|-----------------|-----------------|
B|-16--------------|--------------15-|-14--------------|-----------------|
G|-15--------------|--------------14-|-13--------------|-----------------|
D|-16--------------|--------------15-|-14--------------|-----------------|
A|-14--------------|--------------13-|-14--------------|-----------------|
E|-----------------|-----------------|-----------------|-----------------|

E|-----------------|-----------------|-0---------------|-----------------|
B|-4---------------|---------------3-|-2---------------|-----------------|
G|-3---------------|---------------2-|-1---------------|-----------------|
D|-4---------------|---------------3-|-2---------------|-----------------|
A|-2---------------|---------------1-|-0---------------|-----------------|
E|-----------------|-----------------|-----------------|-----------------|


e|------------------------------------------------------------------------------------------|
b|------------------------------------------------------------------------------------------|
g|------------------------------------------------------------------------------------------|
d|------------------------------------------------------------------------------------------|
a|------------------------------------------------------------------------------------------|
e|------------------------------------------------------------------------------------------|


Login to Edit
Edit
YouTube
Video
View Sheet Music
Sheet
Music
Print
Speed:
Play Intro (login for the full song)
Play
Intro
Sustain:
Download midi (intro) ...

 Rate:
5 star
4 star
3 star
2 star
1 star
 

Comments (0)
 

No comments yet...

Comment on this tab   -   Unhelpful comments are exterminated.
  Your Guest Name:
      [Member Login]
  Comments:
 

Don't understand the tab?
See "How to Read Guitar Tabs".
Supported tags:
<i>italics</i>
<b>bold</b>
<u>underline</u>
<tab>tab lines</tab>
  Are you a spam robot?

If not, solve the equation:




[966 TabNabbers online]
©2020 TabNabber.com - Musician Supported Contact us Advertising Merchandise Privacy Policy Terms of Use facebook Twitter