TabNabber Tabs   Musician Supported
  Tabs de Piano
Espa˝ol English
Franšais Русский
Artista: # A B C D E F G H I J K L M N O P Q R S T U V W X Y Z
guitar

Guitar Tab, Acordes



(0 from 0 votes)
1,748 Vistas, ´┐Żltima Revisi´┐Żn 2 years ago
by: Anonymous
guest
[Guest]
Author
Spartanscooter 121

Artist: Rise Against
Song: Audience of One
Album: Appeal to Reason

PM - palm mute dotted (.) notes
* - natural harmonic

Intro Guitar 1:

Eb----------------------------------------------------------------------------------|
Bb----10-----10-----10-----10-----10---10---10-----10-----10-----10-----10---10-----|
Gb-------7-7----7-7----7-7----7-7----7----7----7-7----7-7----7-7----7-7----7----7---|
Db----------------------------------------------------------------------------------|
Ab----------------------------------------------------------------------------------|
Eb----------------------------------------------------------------------------------|
PM       . .    . .    . .    . .    .    .    . .    . .    . .    . .    .    .

Eb------------------------------------------------------------|
Bb------------------------------------------------------------|
Gb--7----------------------------7----------------------------|
Db--7(X16)-7------9------5-------7(X16)-7------9------5-------|
Ab--5------7(X16)-9(x16)-5(x16)--5------7(X16)-9(X16)-5(X16)--|
Eb---------5------7------3--------------5------7------3-------|


Login to Edit
Edit
YouTube
Video
View Sheet Music
Sheet
Music
Print
Speed:
Play Intro (login for the full song)
Play
Intro
Sustain:
Download midi (intro) ...

 Rate:
5 star
4 star
3 star
2 star
1 star
 

Comments (0)
 

No comments yet...

Comment on this tab   -   Unhelpful comments are exterminated.
  Your Guest Name:
      [Member Login]
  Comments:
 

Don't understand the tab?
See "How to Read Guitar Tabs".
Supported tags:
<i>italics</i>
<b>bold</b>
<u>underline</u>
<tab>tab lines</tab>
  Are you a spam robot?

If not, solve the equation:




[519 TabNabbers online]
©2020 TabNabber.com - Musician Supported Contact us Advertising Merchandise Privacy Policy Terms of Use facebook Twitter