TabNabber Tabs   Musician Supported
  Tabs de Piano
Espa˝ol English
Franšais Русский
Artista: # A B C D E F G H I J K L M N O P Q R S T U V W X Y Z
guitar

Guitar Tab, Acordes



(0 from 0 votes)
1,840 Vistas, ´┐Żltima Revisi´┐Żn 2 years ago
by: Anonymous
guest
[Guest]
e:---------------------------------------------------------------------------
b:--6---9--9--9--9--9--/11---2--2--2--4/6--6--4/2----------------------------
G:---------------------------------------------------------------------------
D:---------------------------------------------------------------------------
A:---------------------------------------------------------------------------
E:---------------------------------------------------------------------------

  
e:---------------------------------------------------------------------------
b:--6--9--9--9--6--9--9--9--/11----4/6--6--6--6--4/2-------------------------
G:---------------------------------------------------------------------------
D:---------------------------------------------------------------------------
A:---------------------------------------------------------------------------
E:---------------------------------------------------------------------------

  
e:---------------------------------------------------------------------------
b:--6--9--9--6--9---9--9--9--/11----4/6--6--6--6--4/2------------------------
G:---------------------------------------------------------------------------
D:---------------------------------------------------------------------------
A:---------------------------------------------------------------------------
E:---------------------------------------------------------------------------

  
e:---------------------------------------------------------------------------
b:--4/6--9--9--9--9--6--9--9--/11----4/6--6--6--6--4/2-----------------------
G:---------------------------------------------------------------------------
D:---------------------------------------------------------------------------
A:---------------------------------------------------------------------------
E:---------------------------------------------------------------------------

  
e:---------------------------------------------------------------------------
b:--4--2----------4--2-----4-----2/4----4--2--4--6--4--2--2------------------
G:--------3----3--------3-----3----------------------------------------------
D:---------------------------------------------------------------------------
A:---------------------------------------------------------------------------
E:---------------------------------------------------------------------------

  
e:---------------------------------------------------------------------------
b:--4--2-------2--4--2--2---2-----2/4----7--7/9--9--9---7/6------------------
G:--------3--------------------3---------------------------------------------
D:---------------------------------------------------------------------------
A:---------------------------------------------------------------------------
E:---------------------------------------------------------------------------

  
e:---------------------------------------------------------------------------
b:--6--9--9--6--9---9--6--9--9--/11-------2--4/6--6--6--6--4/2--2------------
G:-------------------------------------3-------------------------------------
D:---------------------------------------------------------------------------
A:---------------------------------------------------------------------------
E:---------------------------------------------------------------------------

  
e:---------------------------------------------------------------------------
b:--6--9--9--6--9---9--9--9--/11-------2--4/6--6--6--6--4/2------------------
G:----------------------------------3----------------------------------------
D:---------------------------------------------------------------------------
A:---------------------------------------------------------------------------
E:---------------------------------------------------------------------------

 
e:---------------------------------------------------------------------------
b:--4--2----------4--2-----4-----2/4----4--2--4--6--4--2--2------------------
G:--------3----3--------3-----3----------------------------------------------
D:---------------------------------------------------------------------------
A:---------------------------------------------------------------------------
E:---------------------------------------------------------------------------

  
e:---------------------------------------------------------------------------
b:--4--2-------4--2--2--2-----2/4----7/9--9--7--6----------------------------
G:--------3----------------3-------------------------------------------------
D:---------------------------------------------------------------------------
A:---------------------------------------------------------------------------
E:---------------------------------------------------------------------------


e:---------------------------------------------------------------------------
b:--4--2----------4--2--2--4-----2/4----2--4--2--4--6--4--2--2---------------
G:--------3----3--------------3----------------------------------------------
D:---------------------------------------------------------------------------
A:---------------------------------------------------------------------------
E:---------------------------------------------------------------------------


e:---------------------------------------------------------------------------
b:--4--2-------4--2--2--2-----2/4----7/9--9--7--6----------------------------
G:--------3----------------3-------------------------------------------------
D:---------------------------------------------------------------------------
A:---------------------------------------------------------------------------
E:---------------------------------------------------------------------------

  
e:---------------------------------------------------------------------------
b:--7--7/9--9--7--6----------7--7/9--9--7--6-------------------------------
G:---------------------------------------------------------------------------
D:---------------------------------------------------------------------------
A:---------------------------------------------------------------------------
E:---------------------------------------------------------------------------


e:---------------------------------------------------------------------------
b:--6--9--9--6--9---9--6--9--9--/11----2--2--4/6--6--6--6--4/2---------------
G:---------------------------------------------------------------------------
D:---------------------------------------------------------------------------
A:---------------------------------------------------------------------------
E:---------------------------------------------------------------------------


e:---------------------------------------------------------------------------
b:--6--9--9--9---9--6--9--9--/11----2--2--4/6--6--6--6--4/2------------------
G:---------------------------------------------------------------------------
D:---------------------------------------------------------------------------
A:---------------------------------------------------------------------------
E:---------------------------------------------------------------------------
------|


Login to Edit
Edit
YouTube
Video
View Sheet Music
Sheet
Music
Print
Speed:
Play Intro (login for the full song)
Play
Intro
Sustain:
Download midi (intro) ...

 Rate:
5 star
4 star
3 star
2 star
1 star
 

Comments (0)
 

No comments yet...

Comment on this tab   -   Unhelpful comments are exterminated.
  Your Guest Name:
      [Member Login]
  Comments:
 

Don't understand the tab?
See "How to Read Guitar Tabs".
Supported tags:
<i>italics</i>
<b>bold</b>
<u>underline</u>
<tab>tab lines</tab>
  Are you a spam robot?

If not, solve the equation:




[180 TabNabbers online]
©2020 TabNabber.com - Musician Supported Contact us Advertising Merchandise Privacy Policy Terms of Use facebook Twitter