TabNabber Tabs   Musician Supported
  Tabs de Piano
Espa˝ol English
Franšais Русский
Artista: # A B C D E F G H I J K L M N O P Q R S T U V W X Y Z
guitar

Guitar Tab, Acordes



(0 from 0 votes)
1,857 Vistas, ´┐Żltima Revisi´┐Żn 2 years ago
by: Anonymous
guest
[Guest]
e|---8--8-----8--8----------------------------------|
B|---9--9-----9--9----------------------------------|
G|---10-10----10-10---------------------------------|
D|---10-10----10-10---------------------------------|
A|---8--8-----8--8----------------------------------|
E|--------------------------------------------------|

e|---8--8-----8--8----------------------------------|
B|---9--9-----9--9----------------------------------|
G|---10-10----10-10---------------------------------|
D|---10-10----10-10---------------------------------|
A|---8--8-----8--8----------------------------------|
E|--------------------------------------------------|


e|---8--8-----8--8--------------------------------------|
B|---9--9-----9--9--------------------------------------|
G|---10-10----10-10-------------------------------------|
D|---10-10----10-10-------------------------------------|
A|---8--8-----8--8--------------------------------------|
E|------------------------------------------------------|


e|---8--8-----8--8-------------------------------|
B|---9--9-----9--9-------------------------------|
G|---10-10----10-10------------------------------|
D|---10-10----10-10------------------------------|
A|---8--8-----8--8-------------------------------|
E|-----------------------------------------------|

e|--------------------8-----------------------------------8--|
B|--------------------9-----------------------------------8--|
G|----------5---------10----------------------5-----------8--|
D|---3^5--6---8--5----10--------------3^5--6-----8--5-----10-|
A|--------------------8--------------------------------6--10-|
E|--------------------------------------------------------8--|
                    
e|----10--10--10---8--8--8----8-------------4-----------------|
B|----11--11--11---8--8--8----8---6---6-----6-----------------|
G|----12--12--12---8--8--8----8---7---7-----5-----------------|
D|--------------------------------8---8-----6-----------------|
A|--------------------------------8---8-------------6-7-8-6-5-|
E|--------------------------------6---6-----------8-----------|
    

e|--------------------8-----------------------------------8--|
B|--------------------9-----------------------------------8--|
G|----------5---------10----------------------5-----------8--|
D|---3^5--6---8--5----10--------------3^5--6-----8--5-----10-|
A|--------------------8--------------------------------6--10-|
E|--------------------------------------------------------8--|
                    
e|---10--10--10---8---8--8------------------4-----------------|
B|---11--11--11---8---8--8--------6--6------6-----------------|
G|---12--12--12---8---8--8--------7--7------5-----------------|
D|--------------------------------8--8------6-----------------|
A|--------------------------------8--8--------------6-7-8-6-8-|
E|--------------------------------6--6------------8-----------|
    

e|-----------------------------|-----------------------------|
B|------------6------4---3-----|-3-----3---6-----4------3----|
G|--------5--------------------|----5------------------------|
D|-----6------6------5---3-----|-----------6-----5------3----|
A|--8--------------------------|-----------------------------|
E|-----------------------------|-----------------------------|
           
e|------------------------------3-3--1--------3--3---3--3---3-|
B|--------3----4-----3----1--------------4----1--1---1--1---1-|
G|-----5--------------------------------------1--1---1--1---1-|
D|--6----------5-----3----1-------------------3--3---3--3---3-|
A|---------------------------------------3----3--3---3--3---3-|
E|--------------------------------------------1--1---1--1---1-|
            
e|--------------------8-----------------------------------8--|
B|--------------------9-----------------------------------8--|
G|----------5---------10----------------------5-----------8--|
D|---3^5--6---8--5----10--------------3^5--6-----8--5-----10-|
A|--------------------8--------------------------------6--10-|
E|--------------------------------------------------------8--|
                     
e|---10--10--10---8---8--8-------------------4----------------|
B|---11--11--11---8---8--8--------6----6-----6----------------|
G|---12--12--12---8---8--8--------7----7-----5----------------|
D|--------------------------------8----8-----6----------------|
A|--------------------------------8----8------------6-7-8-6-8-|
E|--------------------------------6----6----------8-----------|
  

e|--------------------8-----------------------------------8--|
B|--------------------9-----------------------------------8--|
G|----------5---------10----------------------5-----------8--|
D|---3^5--6---8--5----10--------------3^5--6-----8--5-----10-|
A|--------------------8--------------------------------6--10-|
E|--------------------------------------------------------8--|
                     

e|---10--10--10---8---8--8----------------------4-----------------|
B|---11--11--11---8---8--8--------6--6----------6-----------------|
G|---12--12--12---8---8--8--------7--7----------5-----------------|
D|--------------------------------8--8----------6-----------------|
A|--------------------------------8--8------------------6-7-8-6-8-|
E|--------------------------------6--6----------------8-----------|
    
e|--------------------8-----------------------------------8--|
B|--------------------9-----------------------------------8--|
G|----------5---------10----------------------5-----------8--|
D|---3^5--6---8--5----10--------------3^5--6-----8--5-----10-|
A|--------------------8--------------------------------6--10-|
E|--------------------------------------------------------8--|
                     

e|---10--10--10---8---8--8------------------4-----------------|
B|---11--11--11---8---8--8--------6--6------6-----------------|
G|---12--12--12---8---8--8--------7--7------5-----------------|
D|--------------------------------8--8------6-----------------|
A|--------------------------------8--8--------------6-7-8-6-8-|
E|--------------------------------6--6------------8-----------|
   
e|-----------------------------|-----------------------------|
B|------------6------4---3-----|-3-----3---6-----4------3----|
G|--------5--------------------|----5------------------------|
D|-----6------6------5---3-----|-----------6-----5------3----|
A|--8--------------------------|-----------------------------|
E|-----------------------------|-----------------------------|
            

e|---------------------------------3-3--1--------3--3---3--3---3-|
B|--------3----4-------3-----1--------------4----1--1---1--1---1-|
G|-----5-----------------------------------------1--1---1--1---1-|
D|--6----------5-------3-----1-------------------3--3---3--3---3-|
A|------------------------------------------3----3--3---3--3---3-|
E|-----------------------------------------------1--1---1--1---1-|
             
e|--------------------8-----------------------------------8--|
B|--------------------9-----------------------------------8--|
G|----------5---------10----------------------5-----------8--|
D|---3^5--6---8--5----10--------------3^5--6-----8--5-----10-|
A|--------------------8--------------------------------6--10-|
E|--------------------------------------------------------8--|
                     
e|---10--10--10---8---8--8----------------------4----------------|
B|---11--11--11---8---8--8-----------6----6-----6----------------|
G|---12--12--12---8---8--8-----------7----7-----5----------------|
D|-----------------------------------8----8-----6----------------|
A|-----------------------------------8----8------------6-7-8-6-8-|
E|-----------------------------------6----6----------8-----------|
    

e|--------------------8-----------------------------------8--|
B|--------------------9-----------------------------------8--|
G|----------5---------10----------------------5-----------8--|
D|---3^5--6---8--5----10--------------3^5--6-----8--5-----10-|
A|--------------------8--------------------------------6--10-|
E|--------------------------------------------------------8--|
                     Help on the Way

e|---10--10--10---8---8--8----------------------4-----------------|
B|---11--11--11---8---8--8--------6--6----------6-----------------|
G|---12--12--12---8---8--8--------7--7----------5-----------------|
D|--------------------------------8--8----------6-----------------|
A|--------------------------------8--8------------------6-7-8-6-8-|
E|--------------------------------6--6----------------8-----------|
    
e|--------------------8-----------------------------------8--|
B|--------------------9-----------------------------------8--|
G|----------5---------10----------------------5-----------8--|
D|---3^5--6---8--5----10--------------3^5--6-----8--5-----10-|
A|--------------------8--------------------------------6--10-|
E|--------------------------------------------------------8--|
                    

e|---10--10--10---8---8--8----------------------4-----------------|
B|---11--11--11---8---8--8--------6--6----------6-----------------|
G|---12--12--12---8---8--8--------7--7----------5-----------------|
D|--------------------------------8--8----------6-----------------|
A|--------------------------------8--8------------------6-7-8-6-8-|
E|--------------------------------6--6----------------8-----------|
   
e|-----------------------------|-----------------------------|
B|------------6------4---3-----|-3-----3---6-----4------3----|
G|--------5--------------------|----5------------------------|
D|-----6------6------5---3-----|-----------6-----5------3----|
A|--8--------------------------|-----------------------------|
E|-----------------------------|-----------------------------|
            
e|---------------------------------3-3--1----------3--3---3--3---3-|
B|--------3----4-------3-----1----------------4----1--1---1--1---1-|
G|-----5-------------------------------------------1--1---1--1---1-|
D|--6----------5-------3-----1---------------------3--3---3--3---3-|
A|--------------------------------------------3----3--3---3--3---3-|
E|-------------------------------------------------1--1---1--1---1-|
              
e|--------------------8-----------------------------------8--|
B|--------------------9-----------------------------------8--|
G|----------5---------10----------------------5-----------8--|
D|---3^5--6---8--5----10--------------3^5--6-----8--5-----10-|
A|--------------------8--------------------------------6--10-|
E|--------------------------------------------------------8--|
                     
e|---10--10--10----8---8--8------------------------4----------------|
B|---11--11--11----8---8--8------------6---6-------6----------------|
G|---12--12--12----8---8--8------------7---7-------5----------------|
D|-------------------------------------8---8-------6----------------|
A|-------------------------------------8---8--------------6-7-8-6-8-|
E|-------------------------------------6---6------------8-----------|


Login to Edit
Edit
YouTube
Video
View Sheet Music
Sheet
Music
Print
Speed:
Play Intro (login for the full song)
Play
Intro
Sustain:
Download midi (intro) ...

 Rate:
5 star
4 star
3 star
2 star
1 star
 

Comments (0)
 

No comments yet...

Comment on this tab   -   Unhelpful comments are exterminated.
  Your Guest Name:
      [Member Login]
  Comments:
 

Don't understand the tab?
See "How to Read Guitar Tabs".
Supported tags:
<i>italics</i>
<b>bold</b>
<u>underline</u>
<tab>tab lines</tab>
  Are you a spam robot?

If not, solve the equation:




[644 TabNabbers online]
©2020 TabNabber.com - Musician Supported Contact us Advertising Merchandise Privacy Policy Terms of Use facebook Twitter