TabNabber Tabs   Musician Supported
  Tabs de Piano
Espa˝ol English
Franšais Русский
Artista: # A B C D E F G H I J K L M N O P Q R S T U V W X Y Z
electric guitar

Guitar Tab, Acordes



(0 from 0 votes)
2,049 Vistas, ´┐Żltima Revisi´┐Żn 2 years ago
by: Anonymous
guest
[Guest]
e|----------------------10------| |---------------------------| |------1------------------|
b|--------------------10--------| |---------------------------| |--------1-------1--------|
g|------------------------------| |------------2-2-5--4-1--2--| |----------0-----0--0--0--|
d|-------0----4-----------------| |----------0----------------| |------------3---3--3--3--|
a|-----0------------------------| |---------------------------| |-------------------------|
e|---0-------------0------------| |---3-0---------------------| |--3----------------------|

e|-------6--6------1--------10--| |---------------------------| |-----1----1----1--1--1---|
b|-------6--6------1------10----| |---------------------------| |----------1----1--1--1---|
g|-------5--5------3---5--------| |------------2-2-5--4-1--2--| |-------3--3----3--3--3---|
d|---------------3-----5--------| |----------0----------------| |-------------------------|
a|--3-6----------1-----3--------| |---------------------------| |---1---------------------|
e|------------------------------| |---3-0---------------------| |-------------------------|
 

e|------6---6----6---------10---|
b|--------6----6---------10-----|
g|---8--------------------------|
d|---8--------------------------|
a|---6--------------------------|
e|---------------------------0--|


Login to Edit
Edit
YouTube
Video
View Sheet Music
Sheet
Music
Print
Speed:
Play Intro (login for the full song)
Play
Intro
Sustain:
Download midi (intro) ...

 Rate:
5 star
4 star
3 star
2 star
1 star
 

Comments (0)
 

No comments yet...

Comment on this tab   -   Unhelpful comments are exterminated.
  Your Guest Name:
      [Member Login]
  Comments:
 

Don't understand the tab?
See "How to Read Guitar Tabs".
Supported tags:
<i>italics</i>
<b>bold</b>
<u>underline</u>
<tab>tab lines</tab>
  Are you a spam robot?

If not, solve the equation:




[423 TabNabbers online]
©2020 TabNabber.com - Musician Supported Contact us Advertising Merchandise Privacy Policy Terms of Use facebook Twitter