TabNabber Tabs   Musician Supported
  Tabs de Piano
Espa˝ol English
Franšais Русский
Artista: # A B C D E F G H I J K L M N O P Q R S T U V W X Y Z
guitar

Guitar Tab, Acordes



(0 from 0 votes)
4,566 Vistas, ´┐Żltima Revisi´┐Żn 2 years ago
by: Anonymous
guest
[Guest]
T|  E:-------------------------------------------------------------------
A|  B:-----------6---------7--6-----------------6-7----6-7-6-------------  
B|  G:7-8-9-8-6--8-----6--8--------8----5v---8 -------8---------8----6v------
N|  D:-------------------------------------------------------------------
A|  A:-------------------------------------------------------------------
B|  E:-------------------------------------------------------------------


E:-------------------------------------------------------------------
B:-----------6---------7--6-----------------6-7----6-7-6-------------  
G:----6--8-----6--8--------8----5v---8 -------8---------8----6v------
D:-------------------------------------------------------------------
A:-------------------------------------------------------------------
E:-------------------------------------------------------------------

E:---------------------------------------------------------------------
B:-----------5---------6--5-----------------5-6----5-6-5---------------
G:----5--7-----5--7--------7----4v---7 -------7---------7----5v--------
D:---------------------------------------------------------------------
A:---------------------------------------------------------------------
E:---------------------------------------------------------------------


Login to Edit
Edit
YouTube
Video
View Sheet Music
Sheet
Music
Print
Speed:
Play Intro (login for the full song)
Play
Intro
Sustain:
Download midi (intro) ...

 Rate:
5 star
4 star
3 star
2 star
1 star
 

Comments (1)
 

Smart E. Pants
[Guest]
2 years ago
This is a guitar tab, tho not a very good one. But the SONG is... a secret.your welcome

Reply

Comment on this tab   -   Unhelpful comments are exterminated.
  Your Guest Name:
      [Member Login]
  Comments:
 

Don't understand the tab?
See "How to Read Guitar Tabs".
Supported tags:
<i>italics</i>
<b>bold</b>
<u>underline</u>
<tab>tab lines</tab>
  Are you a spam robot?

If not, solve the equation:




[793 TabNabbers online]
©2020 TabNabber.com - Musician Supported Contact us Advertising Merchandise Privacy Policy Terms of Use facebook Twitter