TabNabber Tabs   Musician Supported
  Tabs de Piano
Espa˝ol English
Franšais Русский
Artista: # A B C D E F G H I J K L M N O P Q R S T U V W X Y Z
electric guitar

Guitar Tab, Acordes



(0 from 0 votes)
1,403 Vistas, ´┐Żltima Revisi´┐Żn 1 year ago
by: Anonymous
guest
[Guest]
e|---------------------------------------------------|
B|---------------------------------------------------|
G|--------12---------9---------------7--------5------|
D|----10----------7-----7--------5----------3---3----|
A|-12----------8----------8---7----------5--------5--|
E|---------------------------------------------------|

e|-----------------------------------------------------|
B|-----------------------------------------12----|
G|--------12----------9----------7---------15----------|
D|----10----------7----------5---5---------------------|
A|-12----------8---------7-------7---------------------|
E|-----------------------------------------------------|

e|---------------------------------------------------|
B|---------------------------------------------------|
G|--------12---------9---------------7--------5------|
D|----10----------7-----7--------5----------3---3----|
A|-12----------8----------8---7----------5--------5--|
E|---------------------------------------------------|

e|-----------------------------------------------------|
B|-----------------------------------------------------|
G|--------12----------9----------7---------------------|
D|----10----------7----------5---5---------------------|
A|-12----------8---------7-------7---------------------|
E|-----------------------------------------------------|

e|---------------------------------------------------|
B|---------------------------------------------------|
G|--------12---------9---------------7--------5------|
D|----10----------7-----7--------5----------3---3----|
A|-12----------8----------8---7----------5--------5--|
E|---------------------------------------------------|

e|---------------------------------------------------|
B|---------------------------------------------------|
G|--------12----------9------------------------------|
D|----10----------7----------5---7-7-7---------------|
A|-12----------8---------7-------5-5-5-5-5-5---------|
E|-------------------------------------3-3-3---------|

[Chorus]
e|--------|-------15-|---------|---------|----------|----------15---|
B|-10-8---|-12-13----|-5-6-8---|------13-|-------15-|----15-------15|
G|------9-|----------|-------5-|-9-10----|-11-12----|-12----12------|
D|--------|----------|---------|---------|----------|---------------|
A|--------|----------|---------|---------|----------|---------------|
E|--------|----------|---------|---------|----------|---------------|

e|-17-15--------|
B|-------17-----|
G|--------------| 
D|--------------|
A|--------------|
E|--------------|

[Bridge]
250ms delay. do twice one with delay and without
e|--------------------|------------------|
B|------10----13--10--|-----5---8--5-6-5-|
G|---10----10---------|---5---5--5-------|
D|-12-----------------|-7----------------|
A|--------------------|------------------|
E|--------------------|------------------|

e|-------------------------------------|
B|-10-xxxxx-10-xxxxx----xxxxx----------|
G|-10-xxxxx-10-xxxxx-9--xxxxx-9--9--9--| 
D|-12-xxxxx-12-xxxxx-10-xxxxx-10-10-10-|
A|----xxxxx----xxxxx-12-xxxxx-12-12-12-|
E|-------------------------------------|

e|----10h13-13-13-10h13----10h13-13-13-10/8----------------------|
B|-10-------------------10---------------------10h13-13-13-10h13-|
G|-10-------------------10------------------9--------------------|
D|-12-------------------12------------------10-------------------|
A|------------------------------------------12-------------------|
E|---------------------------------------------------------------|

e|---------------|---------------|---------------------------------|
B|---------------|---------------|---------------------------------|
G|-----------5---|---------------|---------------------------------|
D|---------3---3-|---------------|-----------2----2-3--------------|
A|-5-5-5-5-------|-5-5-5-5-3-5-3-|---------3---3------2------------|
E|---------------|---------------|-5-5-5-5-------------------------|

e|----------------------|----------------------|---------------------|
B|----------------13----|----------------------|---------------------|
G|-------------10----10-|----------------------|----------------9----|
D|-12-12-12-12----------|-12-12-12-12-10-12-10-|-------------10---10-|
A|----------------------|----------------------|-12-12-12-12---------|
E|----------------------|----------------------|---------------------|

e|-----------|
B|-----------|
G|-9-10-9--8-|
D|---------x-|
A|---------7-|
E|---------0-|

e|-----------|
B|-----------|
G|-8-9-xxxx--|
D|-x/x-xxxx--|
A|-7-7-xxxx--|
E|-----------|

e|---------------|---------------------------|
B|---------------|-x----x----x----x----x-----|
G|-8-----8-----9-|-x-11-x-11-x-14-x-14-x-14/-|
D|---------------|-x----x----x----x----x-----|
A|-7-----7-----8-|-x-10-x-10-x-13-x-13-x-13/-|
E|---0-0---0-0---|---------------------------|

e|-----------------|-------------5har-|
B|-----------------|-------------5har-|
G|-8-----8-----/9~-|-8-----8----------|
D|-----------------|------------------|
A|-7-----7---------|-7-----7----------|
E|---0-0---0-0-----|---0-0---0-0------|

e|----------------------------------|
B|----------------------------------|
G|-8-0-0-8-0-0-8-0-0-8-0-0--9-0-9-0-|
D|----------------------------------|
A|----------------------------------|
E|----------------------------------|

e|-x----x----x----x----x-----|
B|-x----x----x----x----x-----|
G|-x-11-x-11-x-14-x-14-x-14/-|
D|-x----x----x----x----x-----|
A|-x-10-x-10-x-13-x-13-x-13/-|
E|-0----0----0----0----0-----|

e|----------------------------------------|
B|----------------------------------------|
G|-20-0-0-20-0-0-20-0-0-20-0-0--21-0-21-0-|
D|----------------------------------------|
A|----------------------------------------|
E|----------------------------------------|

[Chorus]
e|--------|-------15-|---------|---------|----------|----------15---|
B|-10-8---|-12-13----|-5-6-8---|------13-|-------15-|----15-------15|
G|------9-|----------|-------5-|-9-10----|-11-12----|-12----12------|
D|--------|----------|---------|---------|----------|---------------|
A|--------|----------|---------|---------|----------|---------------|
E|--------|----------|---------|---------|----------|---------------|

e|--------|-------15-|---------|---------|----------|----------15---|
B|-17-15--|-12-13----|-5-6-8---|------13-|-------15-|----15-------15|
G|------17|----------|-------5-|-9-10----|-11-12----|-12----12------|
D|--------|----------|---------|---------|----------|---------------|
A|--------|----------|---------|---------|----------|---------------|
E|--------|----------|---------|---------|----------|---------------|

e|---------------------------------------------------|
B|---------------------------------------------------|
G|--------12---------9---------------7--------5------|
D|----10----------7-----7--------5----------3---3----|
A|-12----------8----------8---7----------5--------5--|
E|---------------------------------------------------|

e|---------------------------------------------------|
B|---------------------------------------------------|
G|--------12----------9------------------------------|
D|----10----------7----------5---7-7-7---------------|
A|-12----------8---------7-------5-5-5-5-5-5---------|
E|-------------------------------------3-3-3---------|

e|---------------------------------------------------|
B|---------------------------------------------------|
G|--------12---------9---------------7--------5------|
D|----10----------7-----7--------5----------3---3----|
A|-12----------8----------8---7----------5--------5--|
E|---------------------------------------------------|

e|-----------------------------------------------------|
B|-----------------------------------------------------|
G|--------12----------9----------7---------------------|
D|----10----------7----------5---5---------------------|
A|-12----------8---------7-------7---------------------|
E|-----------------------------------------------------|


Login to Edit
Edit
YouTube
Video
View Sheet Music
Sheet
Music
Print
Speed:
Play Intro (login for the full song)
Play
Intro
Sustain:
Download midi (intro) ...

 Rate:
5 star
4 star
3 star
2 star
1 star
 

Comments (0)
 

No comments yet...

Comment on this tab   -   Unhelpful comments are exterminated.
  Your Guest Name:
      [Member Login]
  Comments:
 

Don't understand the tab?
See "How to Read Guitar Tabs".
Supported tags:
<i>italics</i>
<b>bold</b>
<u>underline</u>
<tab>tab lines</tab>
  Are you a spam robot?

If not, solve the equation:




[938 TabNabbers online]
©2020 TabNabber.com - Musician Supported Contact us Advertising Merchandise Privacy Policy Terms of Use facebook Twitter