TabNabber Tabs   Musician Supported
  Tabs de Piano
Espa˝ol English
Franšais Русский
Artista: # A B C D E F G H I J K L M N O P Q R S T U V W X Y Z
guitar

Guitar Tab, Acordes



(0 from 0 votes)
1,609 Vistas, ´┐Żltima Revisi´┐Żn 2 years ago
by: Anonymous
guest
[Guest]
A6       A       D7       D6       A6    A    D7    D6  A6    A   D7   D6
E|----------------|-----------------|----------|---------|---------|---------|
B|----------------|-----------------|-7--5-----|---------|-7--5----|---------|
G|----------------|-----------------|----------|-6--4----|---------|-6--4----|
D|-------4--2---2-|-------4--2----2-|----------|---------|---------|---------|
A|----4-------4---|----4-------4----|----------|---------|---------|---------|
E|-5--------------|-5---------------|----------|---------|---------|---------|

   A6    A   D7   D6     A
E|---------|-----------|-------------|-9---------|
B|-7--5----|-----------|----------10-|----10-----|
G|---------|-6--4------|-6-----------|-----------|
D|---------|---------7-|----7--------|-----------|
A|---------|-----------|-------------|-----------|
E|---------|-----------|-------------|-----------|

A6   A   D7   D6
Hold me, kiss me
A6  A   D7  D6
Whisper sweetly
A6    A  D7   D6
That you love me
A
Forever

           A7          D             D7   Am   C#m          A7
E|-------|-9---------|-7---------7-|-8-------|------------|-------------|
B|----10-|----10-----|---10---10---|---10----|-7--5-----7-|-8---------5-|
G|-------|-----------|-------------|---------|------------|--------6----|
D|-------|-----------|-------------|---------|------------|-----7-------|
A|-------|-----------|-------------|---------|------------|-------------|
E|-------|-----------|-------------|---------|------------|-------------|

   D                  D7        B7        E         A6    A   D7    D6
E|-7--------------7-|-8-------|-9--7----|-9--7----|---------|----------|
B|---10----10--11---|---10----|---------|---------|-7--5----|----------|
G|------------------|---------|---------|---------|---------|-6--4-----|
D|------------------|---------|---------|---------|---------|----------|
A|------------------|---------|---------|---------|---------|----------|
E|------------------|---------|---------|---------|---------|----------|

   A6    A    D7    D6   A6     A    D7     D6
E|----------|----------|-----------|-----------|
B|-7--5-----|----------|-7--5------|-----------|
G|----------|-6--4-----|-----------|-6--4------|
D|----------|----------|-----------|-----------|
A|----------|----------|-----------|-----------|
E|----------|----------|-----------|-----------|

 A  F#m    B  E9
Forever
B6   B    E7  E6
Hold me, kiss me
B6   B   E7  E6
Whisper sweetly
B6    B   E7  E6
That you love me
 B
Forever
   B
E|-------|-11-----------|
B|----11-|-----11-------|
G|-------|--------------|
D|-------|--------------|
A|-------|--------------|
E|-------|--------------|


Login to Edit
Edit
YouTube
Video
View Sheet Music
Sheet
Music
Print
Speed:
Play Intro (login for the full song)
Play
Intro
Sustain:
Download midi (intro) ...

 Rate:
5 star
4 star
3 star
2 star
1 star
 

Comments (0)
 

No comments yet...

Comment on this tab   -   Unhelpful comments are exterminated.
  Your Guest Name:
      [Member Login]
  Comments:
 

Don't understand the tab?
See "How to Read Guitar Tabs".
Supported tags:
<i>italics</i>
<b>bold</b>
<u>underline</u>
<tab>tab lines</tab>
  Are you a spam robot?

If not, solve the equation:




[850 TabNabbers online]
©2020 TabNabber.com - Musician Supported Contact us Advertising Merchandise Privacy Policy Terms of Use facebook Twitter