TabNabber Tabs   Musician Supported
  Tabs de Piano
Espa˝ol English
Franšais Русский
Artista: # A B C D E F G H I J K L M N O P Q R S T U V W X Y Z
guitar

Guitar Tab, Acordes



(0 from 0 votes)
1,384 Vistas, ´┐Żltima Revisi´┐Żn 1 year ago
by: Anonymous
guest
[Guest]
W                   W                   W                   W                   W                   W                
E||-------------------|-------------------|-------------------|-------------------|-------------------|-------------------|
B||-------------------|-------------------|-------------------|-------------------|-------------------|-------------------|
G||-------------------|-------------------|-------------------|-------------------|-------------------|-------------------|
D||--0----------------|--L----------------|--0----------------|--L----------------|--0----------------|--0----------------|
A||--0----------------|--L----------------|--0----------------|--L----------------|--0----------------|--0----------------|
D||--0----------------|--L----------------|--0----------------|--L----------------|--0----------------|--0----------------|
E|  
R|  
.|    Q    Q    Q    Q       E.  E.  H        E     E.  E.  Q    Q    E     E.  E.  H        E     E.  E.  E  E  E  E  E  
C|  e----------------------|----------------------|-----------------------|----------------------|-------------------------|
O|  b----------------------|----------------------|-----------------------|----------------------|-------------------------|
M|  g----------------------|----------------------|-----------------------|----------------------|-------------------------|
-|  d--0----0----0----0----|--0---1---0--------0--|--0---1---0----0----0--|--0---1---0--------0--|--0---1---0-----0--------|
T|  a--0----0----0----0----|--0---1---0--------0--|--0---1---0----0----0--|--0---1---0--------0--|--0---1---0--4--0--3--0--|
A|  d--0----0----0----0----|--0---1---0--------0--|--0---1---0----0----0--|--0---1---0--------0--|--0---1---0--4--0--3--0--|
B|  
N|  
A|    E.  E.  H        E     E.  E.  Q    Q    E     E.  E.  H        E     E.  E.  E  E  E  E  E     E.  E.  H        E  
B|  e----------------------|-----------------------|----------------------|-------------------------|----------------------|
B|  b----------------------|-----------------------|----------------------|-------------------------|----------------------|
E|  g----------------------|-----------------------|----------------------|-------------------------|----------------------|
R|  d--0---1---0--------0--|--0---1---0----0----0--|--0---1---0--------0--|--0---1---0-----0--------|--0---1---0--------0--|
.|  a--0---1---0--------0--|--0---1---0----0----0--|--0---1---0--------0--|--0---1---0--4--0--3--0--|--0---1---0--------0--|
C|  e--0---1---0--------0--|--0---1---0----0----0--|--0---1---0--------0--|--0---1---0--4--0--3--0--|--0---1---0--------0--|
O|  
M|  
-|    E.  E.  Q    Q    E     E.  E.  H        E     E.  E.  E  E  E  E  E     S S S S E  S S S S E  S S S S 
T|  e-----------------------|----------------------|-------------------------|--------------------------------|
A|  b-----------------------|----------------------|-------------------------|--------------------------------|
B|  g-----------------------|----------------------|-------------------------|--------------------------------|
N|  d--0---1---0----0----0--|--0---1---0--------0--|--0---1---0-----0--------|--0----------0----------0-------|
A|  a--0---1---0----0----0--|--0---1---0--------0--|--0---1---0--4--0--3--0--|--0----------0----------0-------|
B|  d--0---1---0----0----0--|--0---1---0--------0--|--0---1---0--4--0--3--0--|--0-0-0-0----0-0-0-0----0-0-0-0-|
B|  
E|  
R|    S S S S E  S S S S S S S S S S    E.  E.  Q.     Q       E.  E.  Q.     Q       E.  E.  Q.     Q    
.|  e---------------------------------|----------------------|----------------------|----------------------|
C|  b---------------------------------|----------------------|----------------------|----------------------|
O|  g---------------------------------|----------------------|----------------------|----------------------|
M|  d--0----------0-------------------|--0---3---1------L----|--0---3---1------L----|--0---3---1------L----|
-|  a--0----------0-------------------|--0---3---1------L----|--0---3---1------L----|--0---3---1------L----|
T|  d--0-0-0-0----0---0-0-0---0-0-0---|--0---3---1------L----|--0---3---1------L----|--0---3---1------L----|
A|  
B|  
N|    E.  E.  Q.     Q       E.  E.  Q.     Q       E.  E.  Q.     Q       E.  E.  Q.     Q       S E  S E  S E  S E  E  E  
A|  ----------------------|----------------------|----------------------|----------------------|----------------------------|
B|  ----------------------|----------------------|----------------------|----------------------|----------------------------|
B|  ----------------------|----------------------|----------------------|----------------------|----7----7----7----7--7--7--|
E|  --0---3---1------L----|--0---3---1------L----|--0---3---1------L----|--0---3---1------L----|--0-7--0-7--0-7--0-7--7--7--|
R|  --0---3---1------L----|--0---3---1------L----|--0---3---1------L----|--0---3---1------L----|--0-5--0-5--0-5--0-5--5--5--|
.|  --0---3---1------L----|--0---3---1------L----|--0---3---1------L----|--0---3---1------L----|--0----0----0----0----------|
C|  
O|  
M|    S E  S E  S E  S E  E  E     S E  S E  S E  S E  S S E     W                   W                   Q.     Q.     E.  S 
-|  ----------------------------|-----------------------------|-------------------|-------------------|----------------------|
T|  ----------------------------|-----------------------------|-------------------|-------------------|----------------------|
A|  ----------------------------|-----------------------------|-------------------|-------------------|----------------------|
B|  ----------------------------|-----------------------------|--0----------------|--0----------------|--0------0------0-----|
N|  --0-3--0-3--0-3--0-3--3--3--|--1-4--1-4--1-4--1-4--1-3-1--|--0----------------|--0----------------|--0------0------0-----|
A|  --0-3--0-3--0-3--0-3--3--3--|--1-4--1-4--1-4--1-4--1-3-1--|--0----------------|--0----------------|--0------0------0-----|
B|  
B|  
E|    E  Q.     Q    E  E     Q.     Q.     E.  S    E  Q.     Q    E  E     Q.     Q.     E.  S    E  Q.     Q    E  E  
R|  -----------------------|----------------------|-----------------------|----------------------|-----------------------|
.|  -----------------------|----------------------|-----------------------|----------------------|-----------------------|
C|  -----------------------|----------------------|-----------------------|----------------------|-----------------------|
O|  -----0------1----0--1--|--0------0------0-----|-----0------3----0--1--|--0------0------0-----|-----0------1----0--1--|
M|  -----0------1----0--1--|--0------0------0-----|-----0------3----0--1--|--0------0------0-----|-----0------1----0--1--|
-|  -----0------1----0--1--|--0------0------0-----|-----0------3----0--1--|--0------0------0-----|-----0------1----0--1--|
T|  
A|  
B|    Q.     Q.     E.  S    E  Q.     Q    E  E     W                   W                   W                
N|  ----------------------|-----------------------|-------------------|-------------------|-------------------|
A|  ----------------------|-----------------------|-------------------|-------------------|-------------------|
B|  ----------------------|-----------------------|--3----------------|--5----------------|--2----------------|
B|  --0------0------0-----|-----0------3----0--1--|--3----------------|--5----------------|--2----------------|
E|  --0------0------0-----|-----0------3----0--1--|--1----------------|--3----------------|--0----------------|
R|  --0------0------0-----|-----0------3----0--1--|-------------------|-------------------|-------------------|
.|  
C|  
O|    W                   Q.     Q.     E.  S    E  Q.     E   E    E   E     Q.     Q.     E.  S    E  Q.     E   E    E    E  
M|  -------------------|----------------------|----------------------------|----------------------|-----------------------------|
-|  -------------------|----------------------|----------------------------|----------------------|-----------------------------|
T|  --L----------------|----------------------|----------------------------|----------------------|-----------------------------|
A|  --L----------------|--0------1------0-----|-----3------7s--8s--11s--8--|--0------1------0-----|-----3------7s--8s--15s--13--|
B|  --L----------------|--0------1------0-----|-----3----------------------|--0------1------0-----|-----3-----------------------|
N|  -------------------|--0------1------0-----|-----3------7s--8s--11s--8--|--0------1------0-----|-----3------7s--8s--15s--13--|
A|  
B|  
B|    Q.     Q.     E.  S    E  Q.     E   E    E   E     Q.     Q.     E.  S    E  Q.     E  E  E  E     Q.     Q.     E.  S 
E|  ----------------------|----------------------------|----------------------|------------------------|----------------------|
R|  ----------------------|----------------------------|----------------------|------------------------|----------------------|
.|  ----------------------|----------------------------|----------------------|------------------------|----------------------|
C|  --0------1------0-----|-----3------7s--8s--11s--8--|--0------1------0-----|-----3------7-----------|--0------0------0-----|
O|  --0------1------0-----|-----3----------------------|--0------1------0-----|-----3------------------|--0------0------0-----|
M|  --0------1------0-----|-----3------7s--8s--11s--8--|--0------1------0-----|-----3------7-----------|--0------0------0-----|
-|  
T|  
A|    Q.     Q.     Q       Q.     Q.     Q       Q.     Q.     Q       E  Q    E  Q    Q       Q.     Q.     Q    
B|  ---------------------|---------------------|---------------------|-----------------------|---------------------|
N|  ---------------------|---------------------|---------------------|-----------------------|---------------------|
A|  ---------------------|--3------3------3----|---------------------|-----------------------|---------------------|
B|  --0------0------0----|--3------3------3----|--3------3------3----|-----5----5--5----3----|--0------0------0----|
B|  --0------0------0----|--1------1------1----|--3------3------3----|-----5----5--5----3----|--0------0------0----|
E|  --0------0------0----|---------------------|--3------3------3----|-----5----5--5----3----|--0------0------0----|
R|  
.|  
C|    Q.     Q.     Q       Q.     Q.     Q       E  Q    E  Q    Q       Q.     Q.     Q       Q.     Q.     Q    
O|  ---------------------|---------------------|-----------------------|---------------------|---------------------|
M|  ---------------------|---------------------|-----------------------|---------------------|---------------------|
-|  --3------3------3----|---------------------|-----------------------|---------------------|--3------3------3----|
T|  --3------3------3----|--3------3------3----|-----5----5--5----5----|--0------0------0----|--3------3------3----|
A|  --1------1------1----|--3------3------3----|-----5----5--5----5----|--0------0------0----|--1------1------1----|
B|  ---------------------|--3------3------3----|-----5----5--5----5----|--0------0------0----|---------------------|
N|  
A|  
B|    Q.     Q.     Q       E  Q    E  Q    Q       Q.     Q.     Q       Q.     Q.     Q       Q.     Q.     Q    
B|  ---------------------|-----------------------|---------------------|---------------------|---------------------|
E|  ---------------------|-----------------------|---------------------|---------------------|---------------------|
R|  ---------------------|-----------------------|---------------------|--3------3------3----|---------------------|
.|  --3------3------3----|-----5----5--5----3----|--0------0------0----|--3------3------3----|--3------3------3----|
C|  --3------3------3----|-----5----5--5----3----|--0------0------0----|--1------1------1----|--3------3------3----|
O|  --3------3------3----|-----5----5--5----3----|--0------0------0----|---------------------|--3------3------3----|
M|  
-|  
T|    E  Q    E  Q    Q       E.  E.  E.  E.  E  E     E.  E.  Q     Q.        Q.     Q.     E.  S    E  Q.     Q    E  E  
A|  -----------------------|------------------------|-----------------------|----------------------|-----------------------|
B|  -----------------------|------------------------|-----------------------|----------------------|-----------------------|
N|  -----------------------|------------------------|-----------------------|----------------------|-----------------------|
A|  -----5----5--5----5----|------------------------|-----------------------|--0------0------0-----|-----0------1----0--1--|
B|  -----5----5--5----5----|--0---1---0---1---0--3--|--0---1---6~----L------|--0------0------0-----|-----0------1----0--1--|
B|  -----5----5--5----5----|--0---1---0---1---0--3--|--0---1----------------|--0------0------0-----|-----0------1----0--1--|
E|  
R|  
.|    Q.     Q.     E.  S    E  Q.     Q    E  E     Q.     Q.     E.  S    E  Q.     Q    E  E     Q.     Q.     E.  S 
C|  ----------------------|-----------------------|----------------------|-----------------------|----------------------|
O|  ----------------------|-----------------------|----------------------|-----------------------|----------------------|
M|  ----------------------|-----------------------|----------------------|-----------------------|----------------------|
-|  --0------0------0-----|-----0------3----0--1--|--0------0------0-----|-----0------1----0--1--|--0------0------0-----|
T|  --0------0------0-----|-----0------3----0--1--|--0------0------0-----|-----0------1----0--1--|--0------0------0-----|
A|  --0------0------0-----|-----0------3----0--1--|--0------0------0-----|-----0------1----0--1--|--0------0------0-----|
B|  
N|  
A|    E  Q.     Q    E  E     W                   W                   W                   W                
B|  -----------------------|-------------------|-------------------|-------------------|-------------------|
B|  -----------------------|-------------------|-------------------|-------------------|-------------------|
E|  -----------------------|--3----------------|--5----------------|--2----------------|--L----------------|
R|  -----0------3----0--1--|--3----------------|--5----------------|--2----------------|--L----------------|
.|  -----0------3----0--1--|--1----------------|--3----------------|--0----------------|--L----------------|
C|  -----0------3----0--1--|-------------------|-------------------|-------------------|-------------------|
O|  
M|  
-|    Q.     Q.     E.  S    E  Q.     E   E    E   E     Q.     Q.     E.  S    E  Q.     E   E    E    E  
T|  ----------------------|----------------------------|----------------------|-----------------------------|
A|  ----------------------|----------------------------|----------------------|-----------------------------|
B|  ----------------------|----------------------------|----------------------|-----------------------------|
N|  --0------1------0-----|-----3------7s--8s--11s--8--|--0------1------0-----|-----3------7s--8s--15s--13--|
A|  --0------1------0-----|-----3----------------------|--0------1------0-----|-----3-----------------------|
B|  --0------1------0-----|-----3------7s--8s--11s--8--|--0------1------0-----|-----3------7s--8s--15s--13--|
B|  
E|  
R|    Q.     Q.     E.  S    E  Q.     E   E    E   E     Q.     Q.     E.  S    E  Q.     E   E    E    E     W                
.|  ----------------------|----------------------------|----------------------|-----------------------------|-------------------|
C|  ----------------------|----------------------------|----------------------|-----------------------------|-------------------|
O|  ----------------------|----------------------------|----------------------|-----------------------------|-------------------|
M|  --0------1------0-----|-----3------7s--8s--11s--8--|--0------1------0-----|-----3------7s--8s--15s--13--|--0----------------|
-|  --0------1------0-----|-----3----------------------|--0------1------0-----|-----3-----------------------|--0----------------|
--0------1------0-----|-----3------7s--8s--11s--8--|--0------1------0-----|-----3------7s--8s--15s--13--|--0----------------|
 
 
  W                   W                   W                 
-------------------|-------------------|-------------------||
-------------------|-------------------|-------------------||
-------------------|-------------------|-------------------||
--L----------------|--L----------------|--L----------------||
--L----------------|--L----------------|--L----------------||
--L----------------|--L----------------|--L----------------||


Login to Edit
Edit
YouTube
Video
View Sheet Music
Sheet
Music
Print
Speed:
Play Intro (login for the full song)
Play
Intro
Sustain:
Download midi (intro) ...

 Rate:
5 star
4 star
3 star
2 star
1 star
 

Comments (0)
 

No comments yet...

Comment on this tab   -   Unhelpful comments are exterminated.
  Your Guest Name:
      [Member Login]
  Comments:
 

Don't understand the tab?
See "How to Read Guitar Tabs".
Supported tags:
<i>italics</i>
<b>bold</b>
<u>underline</u>
<tab>tab lines</tab>
  Are you a spam robot?

If not, solve the equation:




[496 TabNabbers online]
©2020 TabNabber.com - Musician Supported Contact us Advertising Merchandise Privacy Policy Terms of Use facebook Twitter