TabNabber Tabs   Musician Supported
  Tabs de Piano
Espa˝ol English
Franšais Русский
Artista: # A B C D E F G H I J K L M N O P Q R S T U V W X Y Z
guitar

Guitar Tab, Acordes



(0 from 0 votes)
2,042 Vistas, ´┐Żltima Revisi´┐Żn 10 months ago
by: Anonymous
guest
[Guest]
E|------------------------|------------------------|------------------------|
B|---------5-5~-------5~--|---------5-5~-------5~--|---------5-5~-------5~--|
G|--------6-------6~------|--------6-------6~------|--------6-------6~------|
D|-------6----------6~----|-------6----------6~----|-------6----------6~----|
A|--4~--4-----------------|--4~--4-----------------|--4~--4-----------------|
E|------------------------|------------------------|------------------------|

E|------------------------|------------------------|------------------------|
B|---------5-5~-------0~--|---------4-4~-------4~--|----------2~--------2~--|
G|--------6-------6~------|--------4-------4~------|-------3-------3~-------|
D|-------6----------6~----|-------4----------4~----|------4-----------4~----|
A|--4~--4-----------------|--2~--2-----------------|------------------------|
E|------------------------|------------------------|--2~--------------------|

E|------------------------|----------------------|
B|---------5-5~-------5~--|---------5-5~---------|
G|--------6-------6~------|--------6-------6~----|
D|-------6----------6~----|-------6----------6---|
A|--4~--4-----------------|--4~--4---------------|
E|------------------------|----------------------|

E|------------------------|----------------------|
B|---------5-5~-------5~--|---------5-5~---------|
G|--------6-------6~------|--------6-------6~----|
D|-------6----------6~----|-------6----------6---|
A|--4~--4-----------------|--4~--4---------------|
E|------------------------|----------------------|

E|------------------------|----------------------|
B|---------5-5~-------5~--|---------5-5~---------|
G|--------6-------6~------|--------6-------6~----|
D|-------6----------6~----|-------6----------6---|
A|--4~--4-----------------|--4~--4---------------|
E|------------------------|----------------------|

E|------------------------|----------------------|
B|---------5-5~-------5~--|---------5-5~---------|
G|--------6-------6~------|--------6-------6~----|
D|-------6----------6~----|-------6----------6---|
A|--4~--4-----------------|--4~--4---------------|
E|------------------------|----------------------|

E|------------------------|----------------------|
B|---------5-5~-------5~--|---------5-5~---------|
G|--------6-------6~------|--------6-------6~----|
D|-------6----------6~----|-------6----------6---|
A|--4~--4-----------------|--4~--4---------------|
E|------------------------|----------------------|

E|-----------------------|-----------------------|
B|----------2~-------2~--|----------2~-------2~--|
G|-------2-------2~------|-------2-------2~------|
D|------4----------4~----|------4----------4~----|
A|-----------------------|-----------------------|
E|--2~-------------------|--2~-------------------|

E|------------------------|------------------------|
B|---------5-5~-------5~--|---------5-5~-------5~--|
G|--------6-------6~------|--------6-------6~------|
D|-------6----------6~----|-------6----------6~----|
A|--4~--4-----------------|--4~--4-----------------|
E|------------------------|------------------------|

E|------------------------|------------------------|
B|---------5-5~-------5~--|---------5-5~-------5~--|
G|--------6-------6~------|--------6-------6~------|
D|-------6----------6~----|-------6----------6~----|
A|--4~--4-----------------|--4~--4-----------------|
E|------------------------|------------------------|

E|------------------------|------------------------|
B|---------5-5~-------5~--|---------5-5~-------5~--|
G|--------6-------6~------|--------6-------6~------|
D|-------6----------6~----|-------6----------6~----|
A|--4~--4-----------------|--4~--4-----------------|
E|------------------------|------------------------|

E|-----------------------|-----------------------|
B|----------2~-------2~--|----------2~-------2~--|
G|-------2-------2~------|-------2-------2~------|
D|------4----------4~----|------4----------4~----|
A|-----------------------|-----------------------|
E|--2~-------------------|--2~-------------------|

E|------------------------|---------------------|
B|---------5-5~-------5~--|----------4~---------|
G|--------6-------6~------|-------5-------5~----|
D|-------6----------6~----|------6----------6~--|
A|--4~--4-----------------|---------------------|
E|------------------------|--4~-----------------|

E|------------------------|------------------------|------------------------|
B|---------5-5~-------5~--|---------5-5~-------5~--|---------5-5~-------5~--|
G|--------6-------6~------|--------6-------6~------|--------6-------6~------|
D|-------6----------6~----|-------6----------6~----|-------6----------6~----|
A|--4~--4-----------------|--4~--4-----------------|--4~--4-----------------|
E|------------------------|------------------------|------------------------|

E|------------------------|------------------------|------------------------|
B|---------5-5~-------0~--|---------4-4~-------4~--|----------2~--------2~--|
G|--------6-------6~------|--------4-------4~------|-------3-------3~-------|
D|-------6----------6~----|-------4----------4~----|------4-----------4~----|
A|--4~--4-----------------|--2~--2-----------------|------------------------|
E|------------------------|------------------------|--2~--------------------|

E|------------------------|----------------------|
B|---------5-5~-------5~--|---------5-5~---------|
G|--------6-------6~------|--------6-------6~----|
D|-------6----------6~----|-------6----------6---|
A|--4~--4-----------------|--4~--4---------------|
E|------------------------|----------------------|

E|------------------------|----------------------|
B|---------5-5~-------5~--|---------5-5~---------|
G|--------6-------6~------|--------6-------6~----|
D|-------6----------6~----|-------6----------6---|
A|--4~--4-----------------|--4~--4---------------|
E|------------------------|----------------------|

E|------------------------|----------------------|
B|---------5-5~-------5~--|---------5-5~---------|
G|--------6-------6~------|--------6-------6~----|
D|-------6----------6~----|-------6----------6---|
A|--4~--4-----------------|--4~--4---------------|
E|------------------------|----------------------|

E|------------------------|----------------------|
B|---------5-5~-------5~--|---------5-5~---------|
G|--------6-------6~------|--------6-------6~----|
D|-------6----------6~----|-------6----------6---|
A|--4~--4-----------------|--4~--4---------------|
E|------------------------|----------------------|

E|------------------------|----------------------|
B|---------5-5~-------5~--|---------5-5~---------|
G|--------6-------6~------|--------6-------6~----|
D|-------6----------6~----|-------6----------6---|
A|--4~--4-----------------|--4~--4---------------|
E|------------------------|----------------------|

E|------------------------|------------------------|------------------------|
B|---------5-5~-------5~--|---------5-5~-------5~--|---------5-5~-------5~--|
G|--------6-------6~------|--------6-------6~------|--------6-------6~------|
D|-------6----------6~----|-------6----------6~----|-------6----------6~----|
A|--4~--4-----------------|--4~--4-----------------|--4~--4-----------------|
E|------------------------|------------------------|------------------------|

E|------------------------|------------------------|------------------------|
B|---------5-5~-------0~--|---------4-4~-------4~--|----------2~--------2~--|
G|--------6-------6~------|--------4-------4~------|-------3-------3~-------|
D|-------6----------6~----|-------4----------4~----|------4-----------4~----|
A|--4~--4-----------------|--2~--2-----------------|------------------------|
E|------------------------|------------------------|--2~--------------------|

E|------------------------|------|
B|---------5-5~-------5~--|------|
G|--------6-------6~------|------|
D|-------6----------6~----|------|
A|--4~--4-----------------|--4~--|
E|------------------------|------|


Login to Edit
Edit
YouTube
Video
View Sheet Music
Sheet
Music
Print
Speed:
Play Intro (login for the full song)
Play
Intro
Sustain:
Download midi (intro) ...

 Rate:
5 star
4 star
3 star
2 star
1 star
 

Comments (0)
 

No comments yet...

Comment on this tab   -   Unhelpful comments are exterminated.
  Your Guest Name:
      [Member Login]
  Comments:
 

Don't understand the tab?
See "How to Read Guitar Tabs".
Supported tags:
<i>italics</i>
<b>bold</b>
<u>underline</u>
<tab>tab lines</tab>
  Are you a spam robot?

If not, solve the equation:




[502 TabNabbers online]
©2020 TabNabber.com - Musician Supported Contact us Advertising Merchandise Privacy Policy Terms of Use facebook Twitter