TabNabber Tabs   Musician Supported
  Tabs de Piano
Espa˝ol English
Franšais Русский
Artista: # A B C D E F G H I J K L M N O P Q R S T U V W X Y Z
guitar

Guitar Tab, Acordes



(0 from 0 votes)
1,849 Vistas, ´┐Żltima Revisi´┐Żn 9 months ago
by: Anonymous
guest
[Guest]
e|-12-9------12-9------------12-9-------------------------------|
B|------12-9------12-9-12-9-------12-9--------------------------|
G|-------------------------------------11-11--9-----------------|
D|--------------------------------------------------------------|
A|--------------------------------------------------------------|
E|--------------------------------------------------------------|

e|-12-9------12-9------------12-9-------------------------------|
B|------12-9------12-9-12-9-------12-9--------------------------|
G|-------------------------------------11-11--9-----------------|
D|--------------------------------------------------------------|
A|--------------------------------------------------------------|
E|--------------------------------------------------------------|

e|-------7--------7-----------7---------------------------------|
B|---7-9------7-9--9-7----7-9---9-7-777-------------------------|
G|-9--------9-----------9---------------9-----------------------|
D|--------------------------------------------------------------|
A|--------------------------------------------------------------|
E|--------------------------------------------------------------|

e|-12-9------12-9------------12-9-------------------------------|
B|------12-9------12-9-12-9-------12-9--------------------------|
G|-------------------------------------11-11--9-----------------|
D|--------------------------------------------------------------|
A|--------------------------------------------------------------|
E|--------------------------------------------------------------|

e|-12-9------12-9------------12-9-------------------------------|
B|------12-9------12-9-12-9-------12-9--------------------------|
G|-------------------------------------11-11--9-----------------|
D|--------------------------------------------------------------|
A|--------------------------------------------------------------|
E|--------------------------------------------------------------|

e|-------7--------7-----------7---------------------------------|
B|---7-9------7-9--9-7----7-9---9-7--7--------------------------|
G|-9--------9-----------9---------------9-----------------------|
D|--------------------------------------------------------------|
A|--------------------------------------------------------------|
E|--------------------------------------------------------------|
 
e|--------------------------------------------------------------|
B|--------------------------------------------------------------|
G|-9-7-6-4-4h6p4-6/9--------------------------------------------|
D|--------------------------------------------------------------|   
A|--------------------------------------------------------------|
E|--------------------------------------------------------------|

e|--------------------------------------------------------------|
B|--------------------------------------------------------------|
G|-9-7-6-4-4h6p4-6/9--------------------------------------------|
D|--------------------------------------------------------------|   
A|--------------------------------------------------------------|
E|--------------------------------------------------------------|

e|--------------------------------------------------------------|
B|--------------------------------------------------------------|
G|-9-7-6-4-4h6p4-6/9--------------------------------------------|
D|--------------------------------------------------------------|   
A|--------------------------------------------------------------|
E|--------------------------------------------------------------|

e|--------------------------------------------------------------|
B|--------------------------------------------------------------|
G|-9-7-6-4-4h6p4-6/9--------------------------------------------|
D|--------------------------------------------------------------|   
A|--------------------------------------------------------------|
E|--------------------------------------------------------------|

e|--------------------------------------------------------------|
B|--------5-7---------7-5---------------------------------------|
G|-4h6-6------6-4h6-6-----6-------------------------------------| 
D|--------------------------------------------------------------|
A|--------------------------------------------------------------|
E|--------------------------------------------------------------|

e|--------------------------------------------------------------|
B|--------5-7---------7-5---------------------------------------|
G|-4h6-6------6-4h6-6-----6-------------------------------------| 
D|--------------------------------------------------------------|
A|--------------------------------------------------------------|
E|--------------------------------------------------------------|

e|-7-5-4-2/4-2/4-5-7-5-4-2/4-2/4-5------------------------------|
B|--------------------------------------------------------------|
G|--------------------------------------------------------------|
D|--------------------------------------------------------------|
A|--------------------------------------------------------------|
E|--------------------------------------------------------------|

e|--------------------------------------------------------------|
B|--------5-7---------7-5---------------------------------------|
G|-4h6-6------6-4h6-6-----6-------------------------------------|
D|--------------------------------------------------------------|
A|--------------------------------------------------------------|
E|--------------------------------------------------------------|

e|--------------------------------------------------------------|
B|--------5-7---------7-5---------------------------------------|
G|-4h6-6------6-4h6-6-----6-------------------------------------|
D|--------------------------------------------------------------|
A|--------------------------------------------------------------|
E|--------------------------------------------------------------|

e|-2-4---0-2-4---2h4p2-2-4---0-2-4-2h4p2---0--------------------|
B|-----2-------2-----------2-------------2----------------------|
G|--------------------------------------------------------------|
D|--------------------------------------------------------------|
A|--------------------------------------------------------------|
E|--------------------------------------------------------------|

e|--------------------------------------------------------------|
B|--------5-7---------7-5---------------------------------------|
G|-4h6-6------6-4h6-6-----6-------------------------------------|
D|--------------------------------------------------------------|
A|--------------------------------------------------------------|
E|--------------------------------------------------------------|

e|--------------------------------------------------------------|
B|--------5-7---------7-5---------------------------------------|
G|-4h6-6------6-4h6-6-----6-------------------------------------|
D|--------------------------------------------------------------|
A|--------------------------------------------------------------|
E|--------------------------------------------------------------|

e|--------------------------------------------------------------|
B|--------5-7---------7-5---------------------------------------|
G|-4h6-6------6-4h6-6-----6-------------------------------------|
D|--------------------------------------------------------------|
A|--------------------------------------------------------------|
E|--------------------------------------------------------------|

e|--------------------------------------------------------------|
B|--------5-7---------7-5---------------------------------------|
G|-4h6-6------6-4h6-6-----6-------------------------------------|
D|--------------------------------------------------------------|
A|--------------------------------------------------------------|

e|---------2-2-2-2-5-5-5-5-5-5-5-5-5-5-5------------------------|
B|---------2-2-2-2-5-5-5-5-5-5-5-5-5-5-5------------------------|
G|-1-1-1-1-3-3-3-3-6-6-6-6-5-5-5-5-5-5-5------------------------|
D|-2-2-2-2-4-4-4-4-7-7-7-7-7-7-7-7-7-7-7------------------------|
A|-2-2-2-2-4-4-4-4-7-7-7-7-7-7-7-7-7-7-7------------------------|
E|---------2-2-2-2-5-5-5-5-5-5-5-5-5-5-5------------------------|

e|---------2-2-2-2-5-5-5-5-5-5-5-5-5-5-5------------------------|
B|---------2-2-2-2-5-5-5-5-5-5-5-5-5-5-5------------------------|
G|-1-1-1-1-3-3-3-3-6-6-6-6-5-5-5-5-5-5-5------------------------|
D|-2-2-2-2-4-4-4-4-7-7-7-7-7-7-7-7-7-7-7------------------------|
A|-2-2-2-2-4-4-4-4-7-7-7-7-7-7-7-7-7-7-7------------------------|
E|---------2-2-2-2-5-5-5-5-5-5-5-5-5-5-5------------------------|

e|---------2-2-2-2-5-5-5-5-5-5-5-5-5-5-5------------------------|
B|---------2-2-2-2-5-5-5-5-5-5-5-5-5-5-5------------------------|
G|-1-1-1-1-3-3-3-3-6-6-6-6-5-5-5-5-5-5-5------------------------|
D|-2-2-2-2-4-4-4-4-7-7-7-7-7-7-7-7-7-7-7------------------------|
A|-2-2-2-2-4-4-4-4-7-7-7-7-7-7-7-7-7-7-7------------------------|
E|---------2-2-2-2-5-5-5-5-5-5-5-5-5-5-5------------------------|

e|---------2-2-2-2-5-5-5-5-5-5-5-5-5-5-5------------------------|
B|---------2-2-2-2-5-5-5-5-5-5-5-5-5-5-5------------------------|
G|-1-1-1-1-3-3-3-3-6-6-6-6-5-5-5-5-5-5-5--1---------------------|
D|-2-2-2-2-4-4-4-4-7-7-7-7-7-7-7-7-7-7-7--2---------------------|
A|-2-2-2-2-4-4-4-4-7-7-7-7-7-7-7-7-7-7-7--2---------------------|
E|---------2-2-2-2-5-5-5-5-5-5-5-5-5-5-5------------------------|


Login to Edit
Edit
YouTube
Video
View Sheet Music
Sheet
Music
Print
Speed:
Play Intro (login for the full song)
Play
Intro
Sustain:
Download midi (intro) ...

 Rate:
5 star
4 star
3 star
2 star
1 star
 

Comments (0)
 

No comments yet...

Comment on this tab   -   Unhelpful comments are exterminated.
  Your Guest Name:
      [Member Login]
  Comments:
 

Don't understand the tab?
See "How to Read Guitar Tabs".
Supported tags:
<i>italics</i>
<b>bold</b>
<u>underline</u>
<tab>tab lines</tab>
  Are you a spam robot?

If not, solve the equation:




[431 TabNabbers online]
©2020 TabNabber.com - Musician Supported Contact us Advertising Merchandise Privacy Policy Terms of Use facebook Twitter