TabNabber Tabs   Musician Supported
  Tabs de Piano
Espa˝ol English
Franšais Русский
Artista: # A B C D E F G H I J K L M N O P Q R S T U V W X Y Z
electric guitar

Guitar Tab, Acordes



(0 from 0 votes)
1,079 Vistas, ´┐Żltima Revisi´┐Żn 4 months ago
by: Annie Clark
guest
[Guest]
e|--------------------------------------------------------------------------------|
B|--------------------------------------------------------------------------------|
G|--------------------------------------------------------------------------------|
D|--------------------------------------------------------------------------------|
A|--------555---------------------------------------------------------------------|
E|-3-5-3--------------------------------------------------------------------------|
 

e|---------------------------------------------------------------------------|
B|---------------------------------------------------------------------------|
G|---------------------------------------------------------------------------|
D|---------------------------------------------------------------------------|
A|---------5/3-2-------------------------------------------------------------|
E|-3-5-3---------------------------------------------------------------------|
 
 
(Sugargirl... dissolve in me) at 1:50
 
e|-----------------------------------------------------------------------------|
B|-----------------------------------------------------------------------------|
G|-----------------------------------------------------------------------------|
D|-8-11-8-11-8-----------------------------------------------------------------|
A|---------------8-11-8-8-7-8--------------------------------------------------|
E|-----------------------------------------------------------------------------|
 
 

 
e|---------------------------------------------------------------------------|
B|---------------------------------------------------------------------------|
G|---------------------------------------------------------------------------|
D|----------------13----------------------------15b--13v---------------------|
A|--13-15--13h15------15--13h15--13--15--13h15-------------------------------|
E|---------------------------------------------------------------------------|
 
e|---------------------------------------------------------------------------|
B|---------------------------------------------------------------------------|
G|---------------------------------------------------------------------------|
D|-----------------13v-----------------13v-----------------13----------------|
A|-13-15--13h15--------13-15---13h15--------13-15--13h15-------15-13h15-13---|
E|---------------------------------------------------------------------------|
 
 

 
e|---------------------------------------------------------------------------|
B|---------------------------------------------------------------------------|
G|---------------------------------------------------------------------------|
D|------13v------------------------------------------------------------------|
A|--15-----------------------------------------------------------------------|
E|---------------------------------------------------------------------------|


Login to Edit
Edit
YouTube
Video
View Sheet Music
Sheet
Music
Print
Speed:
Play Intro (login for the full song)
Play
Intro
Sustain:
Download midi (intro) ...

 Rate:
5 star
4 star
3 star
2 star
1 star
 

Comments (0)
 

No comments yet...

Comment on this tab   -   Unhelpful comments are exterminated.
  Your Guest Name:
      [Member Login]
  Comments:
 

Don't understand the tab?
See "How to Read Guitar Tabs".
Supported tags:
<i>italics</i>
<b>bold</b>
<u>underline</u>
<tab>tab lines</tab>
  Are you a spam robot?

If not, solve the equation:




[666 TabNabbers online]
©2020 TabNabber.com - Musician Supported Contact us Advertising Merchandise Privacy Policy Terms of Use facebook Twitter