TabNabber Tabs   Musician Supported
  Tabs de Piano
Espa˝ol English
Franšais Русский
Artista: # A B C D E F G H I J K L M N O P Q R S T U V W X Y Z
guitar

Guitar Tab, Acordes



(0 from 0 votes)
6,974 Vistas, ´┐Żltima Revisi´┐Żn 12 years ago
by: Bild
guest
[Guest]
e|---------------------------------------------------|
B|---------------------------------------------------|
G|--12----------12----------12----------12-----------|
D|--------10----------10----------10----------10-----|
A|-----12----12----12----12----12----12----12----12--|
E|---------------------------------------------------|

Verse Riff
----------

e|-----------------------------------------------------------------------------------------|
B|--------------------------------------------------------------------------------5--------|
G|--12----------12----------12---------12---------12----------12----------7----------------|
D|--------10----------10----------9----------9----------10----------10--------5-------5----|
A|-----12----12----12----12----10---10----10---10----12----12----12----12---7---7---7---7--|
E|-----------------------------------------------------------------------------------------|

-------------------------------------------------------------------------------------------------------|
-------------------------------------------------------------------------------------------------------|
cont.------12----------12----------12--------12---------12----------12----------12---------12----------|
----------------10----------10----------9----------9----------10----------10----------9----------9-----|
-------------12----12----12----12----10---10----10---10----12----12----12----12----10---10----10---10--|
-------------------------------------------------------------------------------------------------------|


Verse Riff Variation
--------------------

Russel plays this slight variation on the main riff occassionally, listen out for it

e|-----------------------------------------------------------------------------------------|
B|--------------------------------------------------------------------------------5--------|
G|--12----------12----------12---------12---------12----------12----------7----------------|
D|--------10----------10----------9----------9----------10----------10--------5-------5----|
A|-----12----12----12----12----10---10----10---10----12----12----12----12---7---7---7---7--|
E|-----------------------------------------------------------------------------------------|

-------------------------------------------------------------------------------------------------------|
-------------------------------------------------------------------------------------------------------|
cont.------12----------12----------12--------12---14----12----------12----------12---------12----------|
----------------10----------10----------9---------------------10----------10----------9----------9-----|
-------------12----12----12----12----10---10---------------12----12----12----12----10---10----10---10--|
-------------------------------------------------------------------------------------------------------|

Chorus
------

First there is the chorus riff which is played by piano and maybe doubled by russel on 
i'm not sure

e|-12-------------7-------------8---------------------|------------------12-------13--12-------13--12-------13--12-----|
B|-----13------------8-------------8--------6---5-----|----------------------13-----------13-----------13-----------13-|
G|--------------------------------------------------5-|-play-three-times-----------------------------------------------|
D|----------------------------------------------------|-then-finish-with-----------------------------------------------|
A|----------------------------------------------------|----------------------------------------------------------------|
E|----------------------------------------------------|----------------------------------------------------------------|

Then there is kele playing these chords, the chord at the front is just the little pre 
bit strums a few times at the end of the verse

----   e|--------------------------------|
----   B|--------------------------------|
-12-   G|--10---------------------7------|
-12-   D|--10--x8--10------7------7--x8--|
-10-   A|--8-------10--x8--7--x8--5------|
----   E|----------8-------5-------------|


Bridge
------
break down bit after the second chorus, kele plays

e|--------------------|
B|--------------------|
G|--10-------12-------| play twice, then into
D|--10--x16--12--x16--|
A|--8--------10-------|
E|--------------------|

e|------------------------------------------------------|
B|------------------------------------------------------|
G|--10------7------9------4------5------7------12-------| twice again before back into 
main riff for the ooh's
D|--10--x3--7--x3--9--x3--4--x3--5--x2--7--x2--12--x16--|
A|--8-------5------7------2------3------5------10-------|
E|------------------------------------------------------|

meanwhile russel is just playing this little riff the whole time

e|--13--12------------13--12------|
B|----------13----------------15--|
G|--------------------------------|
D|--------------------------------|
A|--------------------------------|
E|--------------------------------|


Outro
-----

This is the "After sex" bit, first just play the main riff a few times then play the 
before about half wa through adding in this little outro riff

e|--10-12-12------------8-10-10------|
B|-----------10-10--------------8-8--|
G|-----------------------------------|
D|-----------------------------------|
A|-----------------------------------|
E|----------------------------------


Login to Edit
Edit
YouTube
Video
View Sheet Music
Sheet
Music
Print
Speed:
Play Intro (login for the full song)
Play
Intro
Sustain:
Download midi (intro) ...

 Rate:
5 star
4 star
3 star
2 star
1 star
 

Comments (0)
 

No comments yet...

Comment on this tab   -   Unhelpful comments are exterminated.
  Your Guest Name:
      [Member Login]
  Comments:
 

Don't understand the tab?
See "How to Read Guitar Tabs".
Supported tags:
<i>italics</i>
<b>bold</b>
<u>underline</u>
<tab>tab lines</tab>
  Are you a spam robot?

If not, solve the equation:




[631 TabNabbers online]
©2020 TabNabber.com - Musician Supported Contact us Advertising Merchandise Privacy Policy Terms of Use facebook Twitter