TabNabber Tablature   Musician Supported
  Tablatura de Piano
Espa˝ol English
Franšais Русский
Artista:
# A B C D E F G H I J K L M N O P Q R S T U V W X Y Z
Piano

Piano Tab, Acordes



(1.6 from 9 votes)
49,932 Vistas, ´┐Żltima Revisi´┐Żn 11 years ago
by: lol
guest
[Guest]
Print
T|  5|--d---d---d--d---d--d--d--d--d----------------------|-
A|  4|--a---a---a--a---a--a--a--a--a------e-b-b-b-b-e-g-e-|-
B|  4|--------------------------------------g-g-g-g-------|-
N|  
A|  5|--d--d---d--d---d--d--d------------------------|-
B|  4|--a--a---a--a---a--a--a------e-b-b--b-b--b-F-d-|-
B|  4|-------------------------------g-g--g-g--g-----|-
E|  
R|  4|--g-g--b-b--b-a-F----g-g-b-b--b-a-g----g--g-g-b-b--b-a-F-|-
.|  
C|  4|--g-g--b-b--a-a--a-F-F--|-
O|     every bo dy             lovesmy ba by
M|  5|--d---d--d--d---------------d---d--d--d-------------|-

*** This tab is shown in a limited preview until its copyright status can be verified. ***
9 Votes
5 star: 11%  (1)
4 star:  (0)
3 star:  (0)
2 star: 11%  (1)
1 star: 78%  (7)
0 star:  (0)



Ratings disabled
Login to Edit
Edit
Tab

View Sheet Music
Sheet
Music

Speed:
Play Intro (login for the full song)
Play
Intro
Sustain:
Download midi (intro) ...

 

Comments / Corrections (4):
 

Avenged 8-Fold
[Guest]

(9 years ago)
This is not the organ solo... it's just another lame guitar tab from Ultimate Guitar that's wrong to begin with. Below is the link to the original tab, and below that is an excerpt from that tab where this came from.

http://www.ultimate-guitar.com/tabs/d/doors/break_on_through_ver2_tab.htm

Keyboard solo for guitar (The guitar in the back just plays the guitar intro):
|-10--10--10-10--10-10-10-10-10-------7-7-7-7-------|
|-10--10--10-10--10-10-10-10-10-----5-8-8-8-8-5-8-5-|
|---------------------------------------------------|
|---------------------------------------------------|
|---------------------------------------------------|
|---------------------------------------------------|

|-10-10--10-10--10-10-10-------7-7--7-7--7-----|
|-10-10--10-10--10-10-10-----5-8-8--8-8--8-7---|
|--------------------------------------------7-|
|----------------------------------------------|
|----------------------------------------------|
|----------------------------------------------|

|------7-7--7-5----------7-7--7-5-------------7-7--7-5---|
|-8-8-----------7----8-8----------8----8--8-8----------7-|
|--------------------------------------------------------|
|--------------------------------------------------------|
|--------------------------------------------------------|
|--------------------------------------------------------|

|------7-7--5-5--5------|
|-8-8--------------7-7--|
|-----------------------|
|-----------------------|
|-----------------------|
|-----------------------|
   every bo dy             lovesmy ba by
|-10--10-10-10--------------10--10-10-10------------|
|-10--10-10-10--------------10--10-10-10------------|
|-11--11-11-11--9-12p9-12---11--11-11-11--9-12p9-12-|
|---------------------------------------------------|
|---------------------------------------------------|
|---------------------------------------------------|

   every bo dy             lovesmy ba by
|-12--12-12-12--------------12--12-12-12------------|
|-12--12-12-12--------------12--12-12-12------------|
|---------------9-12p9-12-----------------9-12p9-12-|
|---------------------------------------------------|
|---------------------------------------------------|
|---------------------------------------------------|

here's the part where Jim says "She get!"
|-12-10---12-12-----10-10-|-12-10---12-12-----10-10-|
|----------------12-------|----------------12-------|
|-------------------------|-------------------------|
|-------------------------|-------------------------|
|-------------------------|-------------------------|
|-------------------------|-------------------------|

Reply

Anonymous
[Guest]

(9 years ago)
i'm agree with lol. It's not so difficult to read a real piano sheet

Reply

lol
[Guest]

(10 years ago)
these are the first piano tabs ive seen, and I have to say thats quite pathetic XD

Reply

anon
[Guest]

(11 years ago)
I tried to convert this tab to midi but somehow it ended up here, its the organ solo in Break on Through with The Doors btw,

sry ;(

Reply

Comment on this tab   -   Unhelpful comments are exterminated.
  Your Guest Name:
      [Member Login]
  Comments:
 

Don't understand the tab?
See "How to Read Piano Tabs".
Supported tags:
<i>italics</i>
<b>bold</b>
<u>underline</u>
<tab>tab lines</tab>
  Are you a spam robot?

If not, solve the equation:




[27464 TabNabbers online]
©2019 TabNabber.com - Musician SupportedContact usAdvertisingPrivacy PolicyTerms of Usefacebook facebookGoogle +