TabNabber Tabs   Musician Supported
  Tabs de Piano
Espa˝ol English
Franšais Русский
guitar

Guitar Tab, Acordes



(0 from 0 votes)
372 Vistas, ´┐Żltima Revisi´┐Żn 2 months ago
by: BACHVS
guest

Pro Tabber
[Pro Tabber]
E|-----------------------------------------------------------------------------------------------------------------------------------------------------
B|-----------3--3--------------------3--3--------------------2--2--------------------2--2-----------------------3--3--------------------3--3-----------
G|--------2--------2--------------2--------2--------------3--------3-----3--------3--------3-----3-----------2--------2-----2--------2--------2-----2--
D|-----3--------------3--------3--------------3--------2--------------2--------2--------------2-----------3--------------3--------3--------------3-----
A|-----------------------0-----------------------0-----------------------------------------------------------------------------------------------------
D|--0-----------------------0-----------------------2-----------------------2--------------------------3-----------------------3-----------------------

Stave 2:

E|--------------------------------------------------------------------------------------------------------------------------------------1-----------
B|-----------3--3--------------------3--3--------------------3--3--------------------2--2--------------------3--3--------------------3-----3--------
G|--------3--------3-----3--------3--------3-----3--------2--------2-----2--------0--------0-----0--------2--------2--------------2-----------2-----
D|-----0--------------0--------0--------------0--------3--------------3--------2--------------2--------3--------------3--------3-----------------3--
A|-----------------------------------------------------------------------------------------------------------------------0--------------------------
D|--5-----------------------5-----------------------3-----------------------2-----------------------0-----------------------0-----------------------

Stave 3:

E|--------------3-----------------------5--------------------6--6-----------------------5-----------------------3-----------------------0-----------
B|-----------2-----2-----------------3-----3--------------5--------5-----5-----------3-----3-----------------2-----2-----------------2-----2--------
G|--------3-----------3-----------5-----------5--------7--------------7-----------5-----------5-----------3-----------3-----------0-----------0-----
D|-----2-----------------2-----3-----------------3-----------------------------3-----------------3-----2-----------------2-----2-----------------2--
A|--------------------------------------------------------------------------------------------------------------------------0-----------------------
D|--2-----------------------3-----------------------5-----------------------3-----------------------2-----------------------------------------------

Stave 4:

E|-----------------------------
B|-----------3--3--------------
G|--------2--------2-----------
D|-----3--------------3--------
A|-----------------------0-----
D|--0-----------------------0--


Login to Edit
Edit
YouTube
Video
View Sheet Music
Sheet
Music
Print
Speed:
Play Intro (login for the full song)
Play
Intro
Sustain:
Download midi (intro) ...

 Rate:
5 star
4 star
3 star
2 star
1 star
 

Comments (0)
 

No comments yet...

Comment on this tab   -   Unhelpful comments are exterminated.
  Your Guest Name:
      [Member Login]
  Comments:
 

Don't understand the tab?
See "How to Read Guitar Tabs".
Supported tags:
<i>italics</i>
<b>bold</b>
<u>underline</u>
<tab>tab lines</tab>
  Are you a spam robot?

If not, solve the equation:




[46824 TabNabbers online]


©2022 TabNabber.com - Musician Supported Contact us Advertising Merchandise Privacy Policy Terms of Use facebook Twitter