TabNabber Tabs   Musician Supported
  Tabs de Piano
Espa˝ol English
Franšais Русский
guitar

Guitar Tab, Acordes



(0 from 0 votes)
357 Vistas, ´┐Żltima Revisi´┐Żn 2 months ago
by: BACHVS
guest

Pro Tabber
[Pro Tabber]
Stave 1:

E|-----------------------------------------------------------------------------------------------------------------------------
B|-----------3--3--------------------3--3-----------------------2--2--------------------2--2--------------------3--3-----------
G|--------2--------2--------------2--------2-----------------3--------3-----3--------3--------3-----3--------2--------2-----2--
D|-----3--------------3--------3--------------3-----------2--------------2--------2--------------2--------3--------------3-----
A|-----------------------0-----------------------0-----------------------------------------------------------------------------
D|--0-----------------------0-----------------------0--2-----------------------2-----------------------3-----------------------

Stave 2:

E|--------------------------------------------------------------------------------------------------------------------------------------------------------
B|-----------3--3--------------------3--3--------------------3--3--------------------2--2--------------------3--3-----------------------3--3--------------
G|--------3--------3-----3--------3--------3-----3--------2--------2-----2--------0--------0-----0--------2--------2-----------------2--------2-----------
D|-----0--------------0--------0--------------0--------3--------------3--------2--------------2--------3--------------3-----------3--------------3--------
A|-----------------------------------------------------------------------------------------------------------------------0--------------------------0-----
D|--5-----------------------5-----------------------3-----------------------2-----------------------0-----------------------0--0-----------------------0--

Stave 3:

E|--------------1-----------------------3-----------------------5--------------------6--6-----------------------5-----------------------3-----------
B|-----------3-----3-----------------2-----2-----------------3-----3--------------5--------5-----5-----------3-----3-----------------2-----2--------
G|--------2-----------2-----------3-----------3-----------5-----------5--------7--------------7-----------5-----------5-----------3-----------3-----
D|-----3-----------------3-----2-----------------2-----3-----------------3-----------------------------3-----------------3-----2-----------------2--
A|--------------------------------------------------------------------------------------------------------------------------------------------------
D|--0-----------------------2-----------------------3-----------------------5-----------------------3-----------------------2-----------------------

Stave 4:

E|--------------0--------------------------------------:|---------1--1-------------------3--3--------------------0--0--------------------------------------
B|-----------2-----2-----------------3--3--------------:|-------3------3-----3--------3--------3-----3--------2--------2-----2-----------3--3--------------
G|--------0-----------0-----------2--------2-----------:|-----3-----------3--------3--------------3--------0--------------0-----------2--------2-----------
D|-----2-----------------2-----3--------------3--------:|--------------------------------------------------------------------------3--------------3--------
A|--0--------------------------------------------0-----:|-1------------------------------------------------------------------------------------------0-----
D|--------------------------0-----------------------0--:|-----------------------5-----------------------2-----------------------0-----------------------0--

Stave 5:

E|-----------0--0--------------------0--0--------------------0--0-----------------------------------------------6--6-----------5--5-----------9--9--
B|--------3--------3-----3--------3--------3-----3--------2--------2-----2-----------3--3--------------------5--------------3--------------8--------
G|-----3--------------3--------3--------------3--------2--------------2-----------2--------2--------------7--------------5--------------9-----------
D|-----------------------------------------------------------------------------3--------------3-----------------------------------------------------
A|--1-----------------------------------------------0--------------------------------------------0-----------------------------------7--------------
D|--------------------------5-----------------------------------------------0-----------------------0--5--------------3-----------------------------

Stave 6:

E|-------------10--10-----------6--6-----------5--5-----------------------------------
B|---------10----------------5--------------3-----------------2--2-----------3--3-----
G|-----10-----------------7--------------5-----------------0--------------2-----------
D|--0---------------------------------------------------2--------------3--------------
A|---------------------------------------------------0--------------------------------
D|---------------------5--------------3-----------------------------0--------------0--


Login to Edit
Edit
YouTube
Video
View Sheet Music
Sheet
Music
Print
Speed:
Play Intro (login for the full song)
Play
Intro
Sustain:
Download midi (intro) ...

 Rate:
5 star
4 star
3 star
2 star
1 star
 

Comments (0)
 

No comments yet...

Comment on this tab   -   Unhelpful comments are exterminated.
  Your Guest Name:
      [Member Login]
  Comments:
 

Don't understand the tab?
See "How to Read Guitar Tabs".
Supported tags:
<i>italics</i>
<b>bold</b>
<u>underline</u>
<tab>tab lines</tab>
  Are you a spam robot?

If not, solve the equation:




[46791 TabNabbers online]


©2022 TabNabber.com - Musician Supported Contact us Advertising Merchandise Privacy Policy Terms of Use facebook Twitter