TabNabber Tabs   Musician Supported
  Tabs de Piano
Espa˝ol English
Franšais Русский
guitar

Guitar Tab, Acordes



(0 from 0 votes)
320 Vistas, ´┐Żltima Revisi´┐Żn 1 month ago
by: Anonymous
guest
[Guest]
[Intro & Verses]
 
e|-x--x-------x---x-x----------2---|
B|-4--4-x-x-x-5-x-7-7-x--x-x-x-2-x-|
G|-4--4-x-x-x-6-x-8-8-x--5-5-x-3-x-|
D|-6--6-x-x-x-6-x-9-9-x--6-6-x-4-x-|
A|-6--6-x-x-x-4-x-7-7-x--6-6-x-4-x-|
E|-4--4-x-x-x-4-x-7-7-x--4-4-x-2-x-| x3
 
e|-x--x-------x--—x-|
B|-4--4-x-x-x-5-x-7-|
G|-4--4-x-x-x-6-x-8-|
D|-6--6-x-x-x-6-x-9-|
A|-6--6-x-x-x-4-x-7-|
E|-4--4-x-x-x-4-x-7-|
 
 
 
[Chorus]
 
e|-7-------------7\4-|
B|---9-7----------———|
G|-------8-6-4/6--——-|
D|----------------——-| x3
A|----------------———|
E|----------------——-|
 
e|-7---------------|
B|---9-7-----------|
G|-------8-6-4/6-4-|
D|-----------------|
A|-----------------|
E|-----------------|
 
e|-x-x-x-x-x-x-x-x-x-x-x-x-x-x-x-x-x-x-x-x-x-x-x-x-x-x-x-x-x-x-x-x-x-x-x-x-|
B|-x-x-x-x-x-x-x-x-x-x-x-x-x-x-x-x-x-x-x-x-x-x-x-x-x-x-x-x-x-x-x-x-x-x-x-x-|
G|-x-x-x-x-x-x-x-x-x-x-x-x-x-x-x-x-x-x-x-x-x-x-x-x-x-x-x-x-x-x-x-x-x-x-x-x-|
D|-6-6-6-6-6-6-6-6-4-4-4-4-4-4-4-4-11-11-11-11-11-11-11-11-9-9-9-9-9-9-9-9-|
A|-6-6-6-6-6-6-6-6-4-4-4-4-4-4-4-4-11-11-11-11-11-11-11-11-9-9-9-9-9-9-9-9-|
E|-4-4-4-4-4-4-4-4-2-2-2-2-2-2-2-2-9--9--9--9--9--9--9--9--7-7-7-7-7-7-7-7-| x4
 
[Verse 2]
 
e|-x--x-------x---x-x----------2---|
B|-4--4-x-x-x-5-x-7-7-x--x-x-x-2-x-|
G|-4--4-x-x-x-6-x-8-8-x--5-5-x-3-x-|
D|-6--6-x-x-x-6-x-9-9-x--6-6-x-4-x-|
A|-6--6-x-x-x-4-x-7-7-x--6-6-x-4-x-|
E|-4--4-x-x-x-4-x-7-7-x--4-4-x-2-x-| x3
 
e|-x--x-------x--—x-|
B|-4--4-x-x-x-5-x-7-|
G|-4--4-x-x-x-6-x-8-|
D|-6--6-x-x-x-6-x-9-|
A|-6--6-x-x-x-4-x-7-|
E|-4--4-x-x-x-4-x-7-|
 
[Bridge]
 
e|-14-14-14--14---12-12-12--12---11-11-11--11---7p4--------|
B|-12-12-12--12---11-11-11--11---9--9--9---9-------7-4\2h4-|
G|---------------------------------------------------------|
D|---------------------------------------------------------|
A|---------------------------------------------------------|
E|---------------------------------------------------------| x2
 
e|--14----14---14---12----12---12---11----11---11---7----7----7-|
B|----12----12--------11----11--------9-----9---------7----7----|
G|-9----9-----9----8----8-----8----6---6-----6-----4---4----4---|
D|--------------------------------------------------------------|
A|--------------------------------------------------------------|
E|--------------------------------------------------------------|
 
(Strummed)
   1  &  2  &  3  &  4  &  1  &  2  &  3  &  4  &  1  &  2  &  3  &  4  &  1  &  2  &  3  &  4  &
e|-14-14-14-14-14-14-14-14-12-12-12-12-12-12-12-12-11-11-11-11-11-11-11-11-4---------------------|
B|-12-12-12-12-12-12-12-12-11-11-11-11-11-11-11-11-9--9--9--9--9--9--9--9--5---------------------|
G|-9--9--9--9--9--9--9--9--8--8--8--8--8--8--8--8--6--6--6--6--6--6--6--6--4---------------------|
D|-x--x--x--x--x--x--x--x--x--x--x--x--x--x--x--x--x--x--x--x--x--x--x--x--6---------------------|
A|-------------------------------------------------------------------------x---------------------|
E|-----------------------------------------------------------------------------------------------|
 
[Chorus]
 
e|-7-------------7\4-|
B|---9-7----------———|
G|-------8-6-4/6--——-|
D|----------------——-| x3
A|----------------———|
E|----------------——-|
 
e|-7---------------|
B|---9-7-----------|
G|-------8-6-4/6-4-|
D|-----------------|
A|-----------------|
E|-----------------|
 
e|-x-x-x-x-x-x-x-x-x-x-x-x-x-x-x-x-x-x-x-x-x-x-x-x-x-x-x-x-x-x-x-x-x-x-x-x-|
B|-x-x-x-x-x-x-x-x-x-x-x-x-x-x-x-x-x-x-x-x-x-x-x-x-x-x-x-x-x-x-x-x-x-x-x-x-|
G|-x-x-x-x-x-x-x-x-x-x-x-x-x-x-x-x-x-x-x-x-x-x-x-x-x-x-x-x-x-x-x-x-x-x-x-x-|
D|-6-6-6-6-6-6-6-6-4-4-4-4-4-4-4-4-11-11-11-11-11-11-11-11-9-9-9-9-9-9-9-9-|
A|-6-6-6-6-6-6-6-6-4-4-4-4-4-4-4-4-11-11-11-11-11-11-11-11-9-9-9-9-9-9-9-9-|
E|-4-4-4-4-4-4-4-4-2-2-2-2-2-2-2-2-9--9--9--9--9--9--9--9--7-7-7-7-7-7-7-7-| x4
 
[Bridge]
 
e|-14-14-14--14---12-12-12--12---11-11-11--11---7p4--------|
B|-12-12-12--12---11-11-11--11---9--9--9---9-------7-4\2h4-|
G|---------------------------------------------------------|
D|---------------------------------------------------------|
A|---------------------------------------------------------|
E|---------------------------------------------------------| x2
 
e|-x-x-x-x-x-x-x-x-x-x-x-x-x-x-x-x-x-x-x-x-x-x-x-x-x-x-x-x-x-x-x-x-x-x-x-x-|
B|-x-x-x-x-x-x-x-x-x-x-x-x-x-x-x-x-x-x-x-x-x-x-x-x-x-x-x-x-x-x-x-x-x-x-x-x-|
G|-x-x-x-x-x-x-x-x-x-x-x-x-x-x-x-x-x-x-x-x-x-x-x-x-x-x-x-x-x-x-x-x-x-x-x-x-|
D|-6-6-6-6-6-6-6-6-4-4-4-4-4-4-4-4-11-11-11-11-11-11-11-11-9-9-9-9-9-9-9-9-|
A|-6-6-6-6-6-6-6-6-4-4-4-4-4-4-4-4-11-11-11-11-11-11-11-11-9-9-9-9-9-9-9-9-|
E|-4-4-4-4-4-4-4-4-2-2-2-2-2-2-2-2-9--9--9--9--9--9--9--9--7-7-7-7-7-7-7-7-| x2
 
e|-4-4-4-4-4-4-4-4-2-2-2-2-2-2-2-2-9--9--9--9--9--9--9--9--7-7-7-7-7-7-7-7-|
B|-4-4-4-4-4-4-4-4-2-2-2-2-2-2-2-2-9--9--9--9--9--9--9--9--7-7-7-7-7-7-7-7-|
G|-4-4-4-4-4-4-4-4-3-3-3-3-3-3-3-3-9--9--9--9--9--9--9--9--8-8-8-8-8-8-8-8-|
D|-6-6-6-6-6-6-6-6-4-4-4-4-4-4-4-4-11-11-11-11-11-11-11-11-9-9-9-9-9-9-9-9-|
A|-6-6-6-6-6-6-6-6-4-4-4-4-4-4-4-4-11-11-11-11-11-11-11-11-9-9-9-9-9-9-9-9-|
E|-4-4-4-4-4-4-4-4-2-2-2-2-2-2-2-2-9--9--9--9--9--9--9--9--7-7-7-7-7-7-7-7-| x2
 
[Chorus]
 
e|-7-------------7\4-|
B|---9-7----------———|
G|-------8-6-4/6--——-|
D|----------------——-| x3
A|----------------———|
E|----------------——-|
 
e|-7---------------|
B|---9-7-----------|
G|-------8-6-4/6-4-|
D|-----------------|
A|-----------------|
E|-----------------|
 
[Outro]
 
e|-x--x-------x---x-x----------2---|
B|-4--4-x-x-x-5-x-7-7-x--x-x-x-2-x-|
G|-4--4-x-x-x-6-x-8-8-x--5-5-x-3-x-|
D|-6--6-x-x-x-6-x-9-9-x--6-6-x-4-x-|
A|-6--6-x-x-x-4-x-7-7-x--6-6-x-4-x-|
E|-4--4-x-x-x-4-x-7-7-x--4-4-x-2-x-| x3
 
e|-x--x-------x--—x-|
B|-4--4-x-x-x-5-x-7-|
G|-4--4-x-x-x-6-x-8-|
D|-6--6-x-x-x-6-x-9-|
A|-6--6-x-x-x-4-x-7-|
E|-4--4-x-x-x-4-x-7-|
 
 
************************************
 
| x   Dead note
| /   Slide up
| \   Slide down
| h   Hammer on
| p   Pull off
 
************************************


Login to Edit
Edit
YouTube
Video
View Sheet Music
Sheet
Music
Print
Speed:
Play Intro (login for the full song)
Play
Intro
Sustain:
Download midi (intro) ...

 Rate:
5 star
4 star
3 star
2 star
1 star
 

Comments (0)
 

No comments yet...

Comment on this tab   -   Unhelpful comments are exterminated.
  Your Guest Name:
      [Member Login]
  Comments:
 

Don't understand the tab?
See "How to Read Guitar Tabs".
Supported tags:
<i>italics</i>
<b>bold</b>
<u>underline</u>
<tab>tab lines</tab>
  Are you a spam robot?

If not, solve the equation:




[46654 TabNabbers online]


©2022 TabNabber.com - Musician Supported Contact us Advertising Merchandise Privacy Policy Terms of Use facebook Twitter