TabNabber Tabs   Musician Supported
  Tabs de Piano
Espa˝ol English
Franšais Русский
guitar

Guitar Tab, Acordes



(0 from 0 votes)
208 Vistas, ´┐Żltima Revisi´┐Żn 1 month ago
by: bizzle


Tabbenator
[Tabbenator]
e|----------------|----------------|----------------|----------------|
B|------6---6-----|------1---------|------3---------|------1---------|
G|--7-------------|--2-------2-----|--3-------3-----|--2-------2-----|
D|----8-------8---|----2-------2---|----5-------5---|----3-------3---|
A|--------8-------|0-------0-------|--------5-------|--------3-------|
E|6---------------|----------------|3---------------|1---------------|
E|----------------|----------------|----------------|----------------|


e|----------------|----------------|----------------|----------------|
B|----6-------6---|------1-----1---|------3-----3---|------1-----1---|
G|--7-----7-------|--2-----2-------|--3-----3-------|--2-----2-------|
D|------8---------|----2-----------|----5-----------|----3-----------|
A|----------8-----|0---------0-----|----------5-----|----------3-----|
E|6---------------|----------------|3---------------|1---------------|
E|----------------|----------------|----------------|----------------|




e|----------------------------------------------------------------
B|------1---------------3---------------1---------------6---6-----
G|--2-------2-------3-------3-------2-------2-------7-------------
D|----3-------3-------5-------5-------2-------2-------8-------8---
A|--------3---------------5-------0-------0---------------8-------
E|1---------------3-------------------------------6---------------
E|----------------------------------------------------------------


e|----------------------------------------------------------------
B|------1-----1---------3-----3---------1-----1-------6-------6---
G|--2-----2---------3-----3---------2-----2---------7-----7-------
D|----3---------------5---------------2-----------------8---------
A|----------3---------------5-----0---------0---------------8-----
E|1---------------3-------------------------------6---------------
E|----------------------------------------------------------------



e||-------------|----------------|----------------|----------------
B||------1------|---------3------|---------1------|-----6---6------
G||--2-------2--|-----3-------3--|-----2-------2--|-------------7--
D||3-------3----|---5-------5----|---2-------2----|---8-------8----
A||----3--------|-------5--------|-------0-------0|-------8--------
E||------------1|---------------3|----------------|---------------6
E||-------------|----------------|----------------|----------------


e||----------------|----------------|----------------|----------------
B||---1-----1------|---3-----3------|---1-----1------|---6-------6----
G||-------2-----2--|-------3-----3--|-------2-----2--|-------7-----7--
D||-----------3----|-----------5----|-----------2----|---------8------
A||-----3----------|-----5----------|-----0---------0|-----8----------
E||---------------1|---------------3|----------------|---------------6--
E||----------------|----------------|----------------|----------------






e|-------------------------------------------------------------
B|--6---6---------------1---------------3---------------1------
G|----------7-------2-------2-------3-------3-------2-------2--
D|8-------8-------2-------2-------5-------5-------3-------3----
A|----8---------------0-------0-------5---------------3--------
E|------------6-------------------------------3---------------1
E|-------------------------------------------------------------


e|----------------------------------------------------------------
B|---6-------6-------1-----1---------3-----3---------1-----1------
G|-------7-----7---------2-----2---------3-----3---------2-----2--
D|---------8-----------------2---------------5---------------3----
A|-----8---------------0---------0-----5---------------3----------
E|---------------6-------------------------------3---------------1
E|----------------------------------------------------------------





Login to Edit
Edit
YouTube
Video
View Sheet Music
Sheet
Music
Print
Speed:
Play Intro (login for the full song)
Play
Intro
Sustain:
Download midi (intro) ...

 Rate:
5 star
4 star
3 star
2 star
1 star
 

Comments (0)
 

No comments yet...

Comment on this tab   -   Unhelpful comments are exterminated.
  Your Guest Name:
      [Member Login]
  Comments:
 

Don't understand the tab?
See "How to Read Guitar Tabs".
Supported tags:
<i>italics</i>
<b>bold</b>
<u>underline</u>
<tab>tab lines</tab>
  Are you a spam robot?

If not, solve the equation:




[45820 TabNabbers online]


©2022 TabNabber.com - Musician Supported Contact us Advertising Merchandise Privacy Policy Terms of Use facebook Twitter