TabNabber Tabs   Musician Supported
  Tabs de Piano
Espa˝ol English
Franšais Русский
guitar

Guitar Tab, Acordes

Featured! Featured! Featured!

(0 from 0 votes)
409 Vistas, ´┐Żltima Revisi´┐Żn 1 month ago
by: A aron
guest
[Guest]
e|------------------------------------------------|
b|---------11-------14-------------11-------------|
g|------11----------------------11----------11----|x2
d|11h13-------11h13-------11h13-------11h13-------|
a|------------------------------------------------|
e|------------------------------------------------|

e|------------------------------------------------|
b|---------11-------14-------------11---------11--|
g|------11----------------------11----------11-13-|x4
d|11h13-------11h11-------11h13-------11h13-------|
a|--13----------11----------11----------13--------|
e|------------------------------------------------|


Login to Edit
Edit
YouTube
Video
View Sheet Music
Sheet
Music
Print
Speed:
Play Intro (login for the full song)
Play
Intro
Sustain:
Download midi (intro) ...

 Rate:
5 star
4 star
3 star
2 star
1 star
 

Comments (0)
 

No comments yet...

Comment on this tab   -   Unhelpful comments are exterminated.
  Your Guest Name:
      [Member Login]
  Comments:
 

Don't understand the tab?
See "How to Read Guitar Tabs".
Supported tags:
<i>italics</i>
<b>bold</b>
<u>underline</u>
<tab>tab lines</tab>
  Are you a spam robot?

If not, solve the equation:




[47859 TabNabbers online]


©2022 TabNabber.com - Musician Supported Contact us Advertising Merchandise Privacy Policy Terms of Use facebook Twitter